» » »

Pennies Tabs (ver.1)

Artists:  A B C D E F G H I J K L M N O P Q R S T U V W X Y Z # 

Pennies Tabs (ver.1)

Smashing Pumpkins
Rating:
0/5 (0 votes)

Hard to play? Try these video lessons and learn fast.
                PENNIES.TAB  by Smashing Pumpkins

Howdy ya'll guess what? This is that killer b-side to ZERO. You gotta
love
cuz man I do. I loved it so much I took the time to learn it. I found the
earlier tabs to this not accurate and I thought I could do better. Tell
me
what you think alright? I didn't match up the words with the tab just
right,
so don't get all crazy and stuff, just listen to the CD and you'll see
how
it goes. Alright well let's get to the tab.    Oh, by the way. I saw the
Pumpkins in
Little Rock, AR . They rocked. 


[This was created with TabIt version 1.19]

E :----------------|------------------|----------------|
B :--------2--------|------------------|-----2----------|
G :---------2------|---4--------7-----|--------2-------|
D :-----2-----2----|-4--------7-------|--2-------2-----|
A :--0------------2|-----2-/5---------|0-------------2-|
E :-----------------|-------------------|----------------|

E :------------------|----------------|-------------------|
B :------------------|--------2--------|-------------------|
G :---4-----------7--|----------2-----|-----4--------7----|
D :4-----------7-----|-----2------2--|--4---------7------|
A :-------2-/5-------|---0-----------2|-------2-/5-------0|
E :------------------|-------------------|-------------------|
                                 and I stumbled over to you
E :----------------|------------------|----------------|
B :---2------------|------------------|--2-------------|
G :------2--------4|---------7--------|-----2----------|
D :-2------2----4-|-------7---------2|--------2-----4-|
A :-----------2----|--2-/5---------0---|-----------2----|
E :----------------|------------------|----------------|
 as you stumbled over me           and you say the fates were
E :------------------|----------------|----------------------------|
B :------------------|---2------------|---------------------------|
G :-4----------7-----|-----2--------4-|---------7-----9-------|
D :---------7--------|2------2----4---|------7--------9-------|
A :----2-/5-------0--|----------2-----|2-/5-----------7-------|
E :------------------|----------------|----------------------------|
   cruel         for throwing us         together    I always loved
E :----------------|----------------|------------------|----------------|
B
:----------------|---------------2---|------------------|---------2------|
G :--6---7-----9--6|--7-----------2-|--------4---------|-7----------2---|
D :--6---7-----9--6|--7------2------|2-----4---------7-|-------2------2-|
A :--4---5-----7--4|--5----0--------|---2-------2-/5---|-----0----------|
E
:----------------|--------------------|------------------|----------------|
   you sooo   especially when you go    all the world must know
E :-------------------|----------------------|----------------|
B :-------------------|---------------------|----------------|
G :------4----------7-|-------------------|----4--4-----7--|
D :----4----------7---|----4-4-4-4-----|----4--4-----7--|
A :-2--------2-/5-----|----4-4-4-4-----|----2--2-----5--|
E :---------------------|----2-2-2-2-----|----------------|
all the world must know       that I loved you so
E :-----------------|------------------|
B :--------2--------|------------------|
G :----------2------|---4----------7---|
D :-----2------2----|-4----------7-----|
A :---0-----------2-|-------2-/5-------|
E :-----------------|------------------|

E :-----------------|------------------|
B :--------2--------|------------------|
G :----------2------|---4----------7---|
D :-----2------2----|-4----------7-----|
A :---0-----------2-|-------2-/5-------|
E :-----------------|------------------|


E :----------------|------------------|----------------|
B :---------2--------|------------------|-----2----------|
G :----------2------|---4--------7-----|--------2-------|
D :-----2-----2----|-4--------7-------|--2-------2-----|
A :--0------------2|-----2-/5---------|0-------------2-|
E :----------------|------------------|----------------|
  it's a pity we're apart              it's shame you
E :------------------|----------------|-------------------|
B :------------------|---------2-------|-------------------|
G :---4-----------7--|----------2-----|-----4--------7----|
D :4-----------7-----|-----2------2---|--4---------7------|
A :-------2-/5-------|---0-----------2|-------2-/5-------0|
E :------------------|----------------|-------------------|
broke my heart                      but I've got a new girl
E :----------------|------------------|----------------|
B :---2------------|------------------|----------------|
G :------2--------4|---------7--------|------9---------|
D :-2------2----4--|-------7---------|------9---------|
A :-------------2----|-2-/5------------|------7---------|
E :------------------|--------------------|----------------|
 freind         she looks a lot like        you dear
  
E :----------------|---------------------------------------------------
B :----------------|-----------------------------------------------------
G :--6---7-----9--6|--7----------------------------------4----7----
D :--6---7-----9--6|--7--------------------4-4-4--4---4----7----
A :--4---5-----7--4|--5---------------------4-4-4--4---2----5----
E :-------------------|------------------------2-2-2--2---------------
noone could ever do dear    all the world must know   that I loved her so

E :----------------------------------------|
B :--------------------|-------------------|
G :--------------------|---4--4-----7--|
D :-----4-4-4-4-----|----4--4-----7--|
A :-----4-4-4-4-----|----2--2-----5--|
E :-----2-2-2-2-----|----------------|
   especially when you go        

E :------------------------------------
B :------------------------------------
G :---2----4----7----------2----4----7-
D :---2----4----7----------2----4----7-
A :---0----2----5----------0----2----5-
E :------------------------------------
   especially when you go  esecially when you go 
E :------------------------------------
B :------------------------------------
G :---2----4----7----------2----4----7-
D :---2----4----7----------2----4----7-
A :---0----2----5----------0----2----5-
E :------------------------------------
   especially when you go  away and leave me here 
E :--------------------------------------------------
B :--------------------------------------------------
G :---2----4----7---------------------------4---7
D :---2----4----7----------------4--4--4--4---7
A :---0----2----5----------------4--4--4--2---5
E :--------------------------------2--2--2-------
   go away and leave me alone    all the world must know

E :----------------|------------------|----------------|
B :--------2--------|------------------|------2----------|
G :---------2------|---4--------7-----|--------2-------|
D :-----2-----2----|-4--------7-------|--2-------2-----|
A :--0------------2|-----2-/5---------|0-------------2-|
E :----------------|------------------|----------------|

E :------------------|----------------|-------------------|
B :------------------|---------2-------|-------------------|
G :---4-----------7--|----------2-----|-----4--------7----|
D :4-----------7-----|-----2------2---|--4---------7------|
A :-------2-/5-------|---0-----------2|-------2-/5-------0|
E :------------------|----------------|-------------------|
                                     pennies for sale
E :----------------|------------------|----------------|
B :---2-------------|------------------|--2-------------|
G :------2--------4|---------7--------|-----2----------|
D :-2------2----4--|-------7---------2|--------2-----4-|
A :-------------2----|-2-/5---------0---|-----------2----|
E :----------------|------------------|----------------|
             pennies for sale     
E :------------------|----------------|----------------------|
B :------------------|---2------------|----------------------|
G :-4----------7-----|-----2----4-----|-7-----2--------------|
D :---------7--------|2------2--4-----|-7-----2--------------|
A :----2-/5-------0--|----------2-----|-5-----0--------------|
E :------------------|----------------|----------------------|
    pennies for sale       pennies for sale


Again. I did my best, and I want YOU to give me comments.
Please I beg you.
            
Hard to play? Try these video lessons and learn fast. | Correct




comments powered by Disqus
↑ Back to top | Tablatures and chords are parodies/interpretations of the original songs. You may use it for private study, scholarship, research or language learning purposes only