» » »

Smashing Pumpkins, Once Apon A Time Bass tabs (ver.1)

Artists:  A B C D E F G H I J K L M N O P Q R S T U V W X Y Z # 

Once Apon A Time Bass tabs (ver.1)

Smashing Pumpkins Tabs
 Rating:
4/5 (4 votes)
Once Apon A Time lessons Tabs too difficult? Try these video lessons and learn fast
                Tunning: E A D G

  ______________   _____________________________________
/Riff 1         \ /Riff 2                                \
G|---------------|---------------------------------------|
D|---------------|---------------------------------------|
A|5--5-----------|7--7--------7--7--------------------7--|
E|------3--2--2--|------7--7--------7--7--5--5--3--2-----|
  
  ____________________________________________
/Riff 3                                       \
G|---------------------------------------------|
D|---------------------------------------------|
A|5--7-----------------------------------------|
E|------7--0--5--3--2--0--5--3--2--0--5--3--2--|
  ___________________________________
/Riff 4                              \
G|------------------------------------|
D|------------------------------------|
A|7--7--------7--7--------7--7--------|
E|------7--7--------7--7--------5--5--|
  _________________________________
/Riff 5 Start Quiet and Grow Louder\
G|----------------------------|
D|----------------------------|
A|5--5--5--5-5-5-5-5-5-5-5-5--|
E|----------------------------|

  _________________
/Riff 6            \
G|------------------|
D|------------------|
A|5--5--------------|
E|------3--2--2--5--|

Order of Playing and the Amount of Times to Play each Riff
Riff 1 (x6)
Riff 2 (x1)
Riff 1 (x6)
Riff 2 (x1)
Riff 3 (x1)
Riff 4 (x1)
Riff 5 (x4)
Riff 1 (x6 End On "D" 5th Fret on A string
            
Submit corrections

comments powered by Disqus
↑ Back to top | Smashing Pumpkins Bass for Once Apon A Time. Lyrics for acoustic guitar and electric guitar. Tablatures and chords are parodies/interpretations of the original songs. You may use it for private study, scholarship, research or language learning purposes only