» » »

Smashing Pumpkins, Nothing And Everything Tabs (ver.1)

Artists:  A B C D E F G H I J K L M N O P Q R S T U V W X Y Z # 

Nothing And Everything Tabs (ver.1)

Smashing Pumpkins Tabs
 Rating:
4/5 (4 votes)
Nothing And Everything lessons Tabs too difficult? Try these video lessons and learn fast
1
                NOTHING AND EVERYTHING - by Smashing Pumpkins from some old

*1 (intro)

G1 Distortion, chorus(?), reverb (?)

|------------------------------------------------
|-----------------------------------------X-X-X-X
|-5---4--4-2-2--2-4--/9--9-9--9-12-9-12~~-X-X-X-X
|------------------------------------------X-X-X-X
|------------------------------------------------
|------------------------------------------------

|------------------------------------------------
|-----------------------------------------X-X-X-X
|-5---4--4-2-2--2-4--/9--9-9--9-12-9-12~~-X-X-X-X
|-----------------------------------------X-X-X-X
|------------------------------------------------
|------------------------------------------------
                  A.H.
|------------------------------------------------
|-----------------------------------------X-X-X-X
|-5---4--4-2-2--2-4--/9--9-9--9-12-9-12~~-X-X-X-X
|-----------------------------------------X-X-X-X
|------------------------------------------------
|------------------------------------------------

|------------------------------------------------
|-----------------------------------------X-X-X-X
|-5---4--4-2-2--2-4--/9--9-9--9-12-9-12~~-X-X-X-X
|-----------------------------------------X-X-X-X
|------------------------------------------------
|------------------------------------------------

|-8--8-7--7-7-7-8--8-7--7-7-7-8--8-7--7-7-7------
|------------------------------------------------
|------------------------------------------------
|------------------------------------------------
|------------------------------------------------
|------------------------------------------------

G2 (I won't swear by this, but I think it's close)

  pm-----------------------------
|------------------------------------------------
|------------------------------------------------
|-0-0-4-0-5-0-4-0-0-0-4-0-5-0-4-0----------------
|------------------------------------------------
|------------------------------------------------
|------------------------------------------------

*2 Verse

|-0--0-0-0-0-0-----------------------------------  Note: It's REAL hard
|-0--0-0-0-0-0-----------------------2-----------   to tab along to the 
|-1--1-1-1-1-1-5--5-5--5-5-5--4--4-X-2-----------   rhythm, so just listen
|-2--2-2-2-2-2-5--5-5--5-5-5--4--4-X-2-----------   to the recording and 
|-2--2-2-2-2-2-3--3-3--3-3-3--2--2-X-0-----------   play along with this 
|-0--0-0-0-0-0-----------------------------------   pattern.

|-0--0-0-0-0-0-----------------------------------  
|-0--0-0-0-0-0-----------------------2-----------   
|-1--1-1-1-1-1-5--5-5--5-5-5--4--4-X-2-----------  
|-2--2-2-2-2-2-5--5-5--5-5-5--4--4-X-2-----------   
|-2--2-2-2-2-2-3--3-3--3-3-3--2--2-X-0-----------   
|-0--0-0-0-0-0-----------------------------------  

|-0----------------------------------------------  
|-0----------------------------------2-----------   
|-1---------XX-5--5-5--5-5-5--4--4-X-2-----------  
|-2---------XX-5--5-5--5-5-5--4--4-X-2-----------   
|-2---------XX-3--3-3--3-3-3--2--2-X-0-----------   
|-0---------XX-----------------------------------  

|-0--0-0-0-0-0-----------------------------------  
|-0--0-0-0-0-0-----------------------2-----------   
|-1--1-1-1-1-1-5--5-5--5-5-5--4--4-X-2-----------  
|-2--2-2-2-2-2-5--5-5--5-5-5--4--4-X-2-----------   
|-2--2-2-2-2-2-3--3-3--3-3-3--2--2-X-0-----------   
|-0--0-0-0-0-0-----------------------------------  

*3 

G1

|-----7------------------------------------------
|-7-8---8-7-8-7-8~~-7-0-0------------------------
|------------------------------------------------
|------------------------------------------------
|------------------------------------------------
|------------------------------------------------

|------------------------------------------------
|------------------------------------------------
|------------------------------------------------
|-5-5--5-5-5-5-4-4-4-4---------------------------
|-5-5--5-5-5-5-4-4-4-4---------------------------
|-3-3--3-3-3-3-2-2-2-2...------------------------

|------------------------------------------------
|---------3-X-2----------------------------------
|---------2-X-2----------------------------------
|-2-X-X-0-X-2------------------------------------
|-2-X-X-0-X-0------------------------------------
|-0-X-X------------------------------------------

|------------------------------------------------
|------------------------------------------------
|---------------------------1--------------------
|-5-5--5-5-5-5-4-4--4-4-4-4-2--------------------
|-5-5--5-5-5-5-4-4--4-4-4-4-2--------------------
|-3-3--3-3-3-3-2-2--2-2-2-2-0--------------------

G2

|------------------------------------------------
|-------3-X-2------------------------------------
|-------2-X-2------------------------------------
|-2-X-X-0-X-2---5-5--5-5-5-5-4-4-4-4-------------
|-2-X-X-0-X-0---5-5--5-5-5-5-4-4-4-4-------------
|-0-X-X---------3-3--3-3-3-3-2-2-2-2-------------


Lead fill

G1
 
|------------------------------------------------
|------------------------------------------------
|-5---4--4-2-2--2-4--/9-11-12-14-16-14-12-11-----
|------------------------------------------------   
|------------------------------------------------
|------------------------------------------------
  ^   ^
  Lotsa harmonics in here...

|------------------------------------------------
|------------------------------------------------
|-5---4--4-2-2--2-4--??????----------------------
|------------------------------------------------   
|------------------------------------------------
|------------------------------------------------
                     ^an impossible run...

Repeat *2 (Verse)

*4

G1

|-----7------------------------------------------
|-7-8---8-7-8-7-8~~-7-0-0------------------------
|------------------------------------------------
|------------------------------------------------
|------------------------------------------------
|------------------------------------------------

|------------------------------------------------
|------------------------------------------------
|------------------------------------------------
|-5-5--5-5-5-5-4-4-4-4---------------------------
|-5-5--5-5-5-5-4-4-4-4---------------------------
|-3-3--3-3-3-3-2-2-2-2...------------------------

|-----7------------------------------------------
|-7-8---8-7-8-10-10fb----------------------------
|------------------------------------------------
|------------------------------------------------
|------------------------------------------------
|------------------------------------------------

|------------------------------------------------
|------------------------------------------------
|---------------------------1--------------------
|-5-5--5-5-5-5-4-4--4-4-4-4-2--------------------
|-5-5--5-5-5-5-4-4--4-4-4-4-2--------------------
|-3-3--3-3-3-3-2-2--2-2-2-2-0--------------------

G2

|------------------------------------------------
|-------3-X-2------------------------------------
|-------2-X-2------------------------------------
|-2-X-X-0-X-2---5-5--5-5-5-5-4-4-4-4-------------
|-2-X-X-0-X-0---5-5--5-5-5-5-4-4-4-4-------------
|-0-X-X---------3-3--3-3-3-3-2-2-2-2-------------

*5

|-0-0-0--------------------------------------
|-0-0-0----3-3-3-3----------2-2--------------
|-1-1-1----2-2-2-2----------2-2--------------
|-2-2-2----2-2-0-0----------2-2--------------
|-2-2------0-0-0-0----------0-0--------------
|-0-0----------------------------------------

|------------------------------------------------* see bottom
|-10-8-7-8-7-------------------------------------
|------------9-7-5-5-7-5-4-----------------------
|------------------------------------------------
|------------------------------------------------
|------------------------------------------------

repeat *5

1st solo

repeat *2

Repeat *3 without leads

Repeat *5

*6

|------------------------------------------------
|------------------------------------------------
|------5--5-5--------5--5-5--------5--5-5--4--2--
|------X--X-X--------X--X-X--------X--X-X--4--2--
|------3--3-3--------3--3-3--------3--3-3--2--0--
|-0--0--------0-0--0--------0-0--0---------------

|------------------------------------------------
|------------------------------------------------
|------5--5-5--------5--5-5--------5--5-5--4--2--
|------X--X-X--------X--X-X--------X--X-X--4--2--
|------3--3-3--------3--3-3--------3--3-3--2--0--
|-0--0--------0-0--0--------0-0--0---------------

|------------------------------------------------------
|------------------------------------------------------
|------5~~5~5~-------5~~5~5~-------5~~5~5~-------5~~5~5~
|------X--X-X--------X--X-X--------X--X-X--------X--X-X
|------3~~3~3~-------3~~3~3~-------3~~3~3~-------3~~3~3~
|-0--0--------0-0--0--------0-0--0--------0-0--0-------

|------------------------------------------------------
|------------------------------------------------------
|------5~~5~5~-------5~~5~5~-------5~~5~5~-------5~~5~5~
|------X--X-X--------X--X-X--------X--X-X--------X--X-X
|------3~~3~3~-------3~~3~3~-------3~~3~3~-------3~~3~3~
|-0--0--------0-0--0--------0-0--0--------0-0--0-------

*7 Palm muting throughout

|------------------------------------------------
|------------------------------------------------
|------------------------------------------------
|------------------------------------------------
|------------------------------------------------
|-12-12-12-12---8-8-8-8---7-7-7-7---5-5-5-5------

Repeat *5

end

Lead of *5 could also be played as

e|-5-3-2-3-2-0------------------------------
b|-------------3-1-1-3-1-0------------------
            
Submit corrections

comments powered by Disqus
↑ Back to top | Smashing Pumpkins Tabs for Nothing And Everything. Lyrics for acoustic guitar and electric guitar. 1 Tablatures and chords are parodies/interpretations of the original songs. You may use it for private study, scholarship, research or language learning purposes only