» » »

Never Let Me Down Tabs (ver.2)

Artists:  A B C D E F G H I J K L M N O P Q R S T U V W X Y Z # 

Never Let Me Down Tabs (ver.2)

Smashing Pumpkins
Rating:
0/5 (0 votes)

Hard to play? Try these video lessons and learn fast.
                (Intro)
                 T h e   S m a s h i n g   P u m p k i n s 
                     N e v e r   L e t   M e   D o w n   
Tuning:                    A Depeche Mode Cover
E,A,D,G,B,E

|---------------------|--------------------|
|---------------------|--------------------|
|---0---0---0---0---0-|-0---0---0---0---0--|
|-----3-------3---3---|---3-------3---3----|
|---------------------|--------------------|
|-3-------3-----------3-------3------------|

|-------------------------5----------------------|
|---------6-----------6---|----------------------|
|---7-5-7---7---7-5-7-----|---5------0-----0---0-|
|-0---------------------7-|-5---5--7---7-5---3---|
|-------------------------|----------------------|
|-------------------------|----------------------|

|-------------------------5----------------------|
|---------6-----------6---|----------------------|
|---7-5-7---7---7-5-7-----|---5------0-----0---0-|
|-0---------------------7-|-5---5--7---7-5---3---|
|-------------------------|----------------------|
|-------------------------|----------------------|
                         mess around with this
|-----------------------|----------------------|
|---------6-------------|-b8----b8-------------|
|---7-5-7---5---5-3-5---|----10----------------|
|-0-------------------5-|----------------------|
|-----------------------|----------------------|
|-----------------------|----------------------|
            
Hard to play? Try these video lessons and learn fast. | Correct




comments powered by Disqus
↑ Back to top | Tablatures and chords are parodies/interpretations of the original songs. You may use it for private study, scholarship, research or language learning purposes only