» » »

Smashing Pumpkins, Never Let Me Down Tabs (ver.1)

Artists:  A B C D E F G H I J K L M N O P Q R S T U V W X Y Z # 

Never Let Me Down Tabs (ver.1)

Smashing Pumpkins Tabs
Rating:
0/5 (0 votes)
Never Let Me Down lessons Tabs too difficult? Try these video lessons and learn fast
                (Intro)
                   S M A S H I N G   P U M P K I N S 
                   N E V E R   L E T   M E   D O W N    Depeche Mode cover
                                                        Rocket, single 

 Tuning:EADGBE 

 Gtr. 1
|------------------------------------------|
|------------------------------------------|
|---0---0---0---0---0---0---0---0---0---0--|
|-----3-------3---3-------3-------3---3----|
|------------------------------------------|
|-3-------3-----------3-------3------------|
|Gtr. 2 
|---3-1-3---3-1-3-1-3---3-1-3---3-1-3-1-3--|
|------------------------------------------|
|------------------------------------------|
|------------------------------------------|
|------------------------------------------|
|------------------------------------------|

 Gtr. 1  (2 times)
|------------------------5------------------------|
|---------6----------6-------5--------------------|
|---7-5-7---7--7-5-7-------5---5---0-----0---0----|
|-0--------------------7---------7---7-5---3---0--|
|-------------------------------------------------|
|-------------------------------------------------|
|Gtr. 2  (2 times)                                |
|---------1----------1---5-5-----5---5-----3------|not sure 
|---5-1-5---5--5-1-5------------------------------|about the
|----------------------2-----------0----0---------|guitar
|-0-----------------------------------------------|
|-------------------------------------------------|
|-------------------------------------------------|its not right

|-----------------------------------------------|
|-------6------------8br----8-8br----8br-----8--|
|-7-5-7---5--5-3-5-------10-------10-----10-----|
|------------------5----------------------------|
|-----------------------------------------------|
|-----------------------------------------------|
|                                               |
|-------1------------3---1--3-3------3---5\-----|not sure
|-3-1-3---1--1---1------------------------------|
|--------------3---0----------------------------|
|-----------------------------------------------|
|-----------------------------------------------|
|-----------------------------------------------|
            
Submit corrections

comments powered by Disqus
↑ Back to top | Smashing Pumpkins Tabs for Never Let Me Down. Lyrics for acoustic guitar and electric guitar. Tablatures and chords are parodies/interpretations of the original songs. You may use it for private study, scholarship, research or language learning purposes only