» » »

Smashing Pumpkins, Neverlast Tabs (ver.2)

Artists:  A B C D E F G H I J K L M N O P Q R S T U V W X Y Z # 

Neverlast Tabs (ver.2)

Smashing Pumpkins Tabs
 Rating:
4/5 (4 votes)
Neverlast lessons Tabs too difficult? Try these video lessons and learn fast
                Neverlost                      Smashing Pumpkins

Intro/Verse

[-------------------------------------------0---------------------------]
[-----------------------------------------------------------------------]
[-----------------------------------------------------------------------]
[--------5~--------7~-------4~------2-----------------------------------]
[-----7---------9---------5--------3------------------------------------]
[-----------------------------------------------------------------------]


Pre-Chorus


[----------------------------------------------------------------------------]
[----------------------------------------------------------------------------]
[---7/6\7---9/8\9----6----4------------4---6---------------------------------]
[---7/6\7---9/8\9----6----4---(x2)-----4---6---------------------------------]
[---5/4\5---7/6\7----4----2------------2---4---------------------------------]
[---0--------0-------0----0------------0---0---------------------------------]

Chorus/Verse

[-------------------------------------------0---------------------------]
[-----------------------------------------------------------------------]
[-----------------------------------------------------------------------]
[--------5~--------7~-------4~------2-----------------------------------]
[-----7---------9---------5--------3------------------------------------]
[-----------------------------------------------------------------------]

Bridge/Pre-Solo

[--------------------------------------------------------------------]
[--------------------------------------------------------------------]
[----------0---4---0-------------------------------------------------]
[-------4--------------4---------------------------------------------]
[-----2--------------------------------------------------------------]
[---0----------------------------------------------------------------]

Solo

[--------------------------------------------------------------------------------------------------]
[---12-----14---9----------------------------------------------------------------------------------]
[----------------------13---14----11---13---9---11brbbrbrbrbrb-------------------------------------]
[-----------------------------------------------------------------------------------------9-7-9-7--]
[--------------------------------------------------------------------------11p9h11p9---------------]
[--------------------------------------------------------------------------------------------------]

Solo(contd.)

[---------------------------------------------------------------------------------------]
[-----------------------------------------9p7h9---------------9p7h9p7h9-----------------]
[---------------------------9-9/11-9-------------9-9/11-11-----------------9-9/11-11-9--]
[----------------9h11p7-----------------------------------------------------------------]
[--9-9/11-11----------------------------------------------------------------------------]
[---------------------------------------------------------------------------------------]

Solo(contd.)

[---------------------------------------------------------]
[------------------------7-7/9-9/11-11/13-13/14-----------]
[----11p9h11p9-11-----------------------------------------]
[---------------------------------------------------------]
[---------------------------------------------------------]
[---------------------------------------------------------]

Chorus

[-----------------------------------------------------------------------------]
[-----------------------------------------------------------------------------]
[---7/6\7---9/8\9----6----4------------4---6----------------------------------]
[---7/6\7---9/8\9----6----4---(x2)-----4---6----------------------------------]
[---5/4\5---7/6\7----4----2------------2---4----------------------------------]
[---0--------0-------0----0------------0---0----------------------------------]

Verse/Outro
[-------------------------------------------0---------------------------]
[-----------------------------------------------------------------------]
[-----------------------------------------------------------------------]
[--------5~--------7~-------4~------2-----------------------------------]
[-----7---------9---------5--------3------------------------------------]
[-----------------------------------------------------------------------]
            
Submit corrections

comments powered by Disqus
↑ Back to top | Smashing Pumpkins Tabs for Neverlast. Lyrics for acoustic guitar and electric guitar. Tablatures and chords are parodies/interpretations of the original songs. You may use it for private study, scholarship, research or language learning purposes only