» » »

Smashing Pumpkins, Neverlast Tabs (ver.1)

Artists:  A B C D E F G H I J K L M N O P Q R S T U V W X Y Z # 

Neverlast Tabs (ver.1)

Smashing Pumpkins Tabs
 Rating:
4/5 (4 votes)
Neverlast lessons Tabs too difficult? Try these video lessons and learn fast
                ok. song is easy.


------------------------------|--------------------|
------------------------------|--------------------|
------------------------------|--------------------|
-----2------4--------------6--|--------------------|
--4------6---------4----2-----|--------------------|
----------------5----4--------|--------------------|

repeat this... this is the verse and the chorus... the bridge between the chorus when he goes....

Every turn is torture thought.....Every kicking of the drum......

that part is...

-----------------------------------------|-----------------------|
-----------------------------------------|-----------------------|
----8/7-----9/8--------------------------|-----------------------|
----x/x-----x-x-----9--------------------|-----------------------|
----6/5-----7/6-----x--------------------|-----------------------|
--------------------7--------------------|-----------------------|
            
Submit corrections

comments powered by Disqus
↑ Back to top | Smashing Pumpkins Tabs for Neverlast. Lyrics for acoustic guitar and electric guitar. Tablatures and chords are parodies/interpretations of the original songs. You may use it for private study, scholarship, research or language learning purposes only