>
 >
Muzzle 1

Muzzle 1 Guitar Tabs

Smashing Pumpkins - Muzzle 1 chords, tabs, tablatures, lyrics

Guitar lessons | Add/correct | Request | Top 50 tabs Artists:  A B C D E F G H I J K L M N O P Q R S T U V W X Y Z 0-9

Muzzle 1 Guitar Tabs – Smashing Pumpkins

CD, Sheet music, Poster

Do you like Muzzle 1? Share with your friends now
Bass TabsChordsChords v2Drum TabsTabsTabs v2Ukulele
SMASHING PUMPKINS:

MUZZLE 

Written by Billy Corgan
MCIS : Starlight to Twilight

Open Tuning
(Eb, Ab, Db, Gb, Ab, Eb) Down One Half Step + Drop B


Quick Reference Cords (Remember the tuning is different)

A  : X02200
B  : X20020
G  : 3X0000
D  : XX0250
E5 : 022XXX

Guitar 1: Bridge Pickup, Big Muff; Volume knob rolled off

INTRO/VERSE 1:
  A               G     B
|--0--0--0--0--|--------0--0--|
|--0--0--0--0--|--0--0--0--0--|
|--2--2--2--2--|--0--0--2--2--|
|--2--2--2--2--|--0--0--0--0--|
|--0--0--0--0--|--X--X--2--2--|
|--------------|--3--3--------|
  I fear that     I am  ordinary..
  Just like everyone..
                        
Guitar 2 In; Doubles Guitar one (Split in stereo);
Kick up the volume knob to 10 on both guitars

  To lie here, and die among the sorrows
  Drift among the days..

PRECHORUS:
  D              B                 E5             A
|-0--0--0--0--|--0--0--0--0--0--|--------------|--0--0--0------
|-5--5--5--5--|--0--0--0--0--0--|--------------|--0--0--0------
|-2--2--2--2--|--2--2--2--2--2--|--------------|--2--2--2------
|-0--0--0--0--|--0--0--0--0--0--|--2--2--2--2--|--2--2--2------
|-------------|--2--2--2--2--2--|--2--2--2--2--|--0--0--0------
|-------------|-----------------|--0--0--0--0--|---------------
 
  D                                   B
  Cause everything I've ever said and everything I've ever done
  
  E5         A
  Is gone, and dead

CHORUS:
|-------0--0--|--0--0--0--0--|
|-0--0--0--0--|--0--0--0--0--|
|-0--0--2--2--|--2--2--2--2--|
|-0--0--0--0--|--2--2--2--2--|
|-X--X--2--2--|--0--0--0--0--|
|-3--3--------|--------------|
  'Cause some things will surly have to end
  Great loves will one day have to part
  
|-------0--0--|--0--0--0--0--|
|-0--0--0--0--|--5--5--5--5--|
|-0--0--2--2--|--2--2--2--2--|
|-0--0--0--0--|--0--0--0--0--|
|-X--X--2--2--|--------------|
|-3--3--------|--------------|
  I Know that I am meant for this world

Second Verse:

  A              G        B       A                       G   A
  My life has been extraordinary blessed and cursed and won
  Time heals but I'm forever broken by and by the way
  D                        B                             A
  Have you ever heard the words I'm singing in these songs
  Its for the girl I've loved all along
  Can a taste of love be so wrong?

Second Chorus, Same As the First Chorus 

B                    
And in my mind as I was floating
G                         A
Far above the clouds
D           
Some children laughed, I'd fall for certain
B                                            A
For thinking that I'd last forever

(Roll volume off again)
                G                     B       A
But I knew exactly where I was
And I knew ... ... (repeatedly)

  (Kick in the high volume at this line)
And I knew the secrets in your spires
..( repeat more "and I knew")

D                         B                         A
and the world is drawn into your hands
(repeat and the world with same chords)

D                         B         A       G     B
is the world you can't live without
A                     G            B               A
and I knew the silence of the world

End on A.





Comments


Popular Smashing Pumpkins tabs & chords
Fuck You Bass Tabs
Shame Bass Tabs
Summer Chords
1979 1 Tabs
Blissed And Gone Tabs
Daydream 1 Tabs
Heavy Metal Machine 1 Tabs
Sunkissed Tabs
Tonight, Tonight 1 Tabs
Blue Skies Bring Tears Ukulele


Song lyrics



↑ Back to top | Tablatures and chords are parodies/interpretations of the original songs. You may use it for private study, scholarship, research or language learning purposes only
© 2014 AZChords.com Contact us | Privacy policy | DMCA | Add/correct tabs | Request tabs | Top 50 tabs