» » »

Smashing Pumpkins, Mother Tabs (ver.2)

Artists:  A B C D E F G H I J K L M N O P Q R S T U V W X Y Z # 

Mother Tabs (ver.2)

Smashing Pumpkins Tabs
 Rating:
4/5 (4 votes)
Mother lessons Tabs too difficult? Try these video lessons and learn fast
                e-----------------------
b--3--1--0-h-1----------
g--2--2--2---2----------
d--0--0--0---0----------
a--0--0--0---0----------
d--0--0--0---0----------


Waitin' 
I've been waiting
Oh yeah

Startin'
I'm startin
waiting
oh yeah

(chorus)
I will be done x2
Chorus:
e-----------------------------------
b--------0-------0-------0----------
g------0-------0-------0---------0--
d----0-------0-------0---------0----
a--3-------2-------1---------0------
E--------------------------0--------

(Verse)
I'm certain
I am one step closer to you
babe
we should
we should remove
you from you 

(chorus)

Lead
            
Submit corrections

comments powered by Disqus
↑ Back to top | Smashing Pumpkins Tabs for Mother. Lyrics for acoustic guitar and electric guitar. Tablatures and chords are parodies/interpretations of the original songs. You may use it for private study, scholarship, research or language learning purposes only