>
 >
Mellon Collie

Mellon Collie Guitar Tabs

Smashing Pumpkins - Mellon Collie chords, tabs, tablatures, lyrics

Guitar lessons | Add/correct | Request | Top 50 tabs Artists:  A B C D E F G H I J K L M N O P Q R S T U V W X Y Z 0-9

Mellon Collie Guitar Tabs – Smashing Pumpkins

CD, Sheet music, Poster

Do you like Mellon Collie? Share with your friends now
Tabs
--------------------------- |------------------|----------1010-10-8-7-----|--------------
-10------1010--10-8-7-------|-8--7-----3-------|-10-------77--------------|-8--7-----3---
-7-------7-7----------------|-9------9-4---4---|-7-------7----------------|-9-----9--4-4-
-7------7-------------------|-9--------5---- --|-7------8-----------------|-9--------5---
-9-----9------------------ -|-7--------5---- --|-9-----9------------------|-7--------5---
-10--10---------------------|----------3----- -|-10--10-------------------|----------3---
                                                                              

------------------|----------------------|-7--5--3--2----------|-------0--------|---
-8--7---5--3------|-10-------------7-----|-8--7--5--3---3------|-1--------3--1--|---
-5---------4--4---|-7-------7--9---------|-----------------4---|-2----2---------|---
-5---------5------|-7------7-------------|-7-------------------|-3---3----------|---
-7---------5------|-9-----9--------------|-0-------------------|-3--3-----------|---
-8---------3------|-10--10---------------|----------3----------|-1-1------------|---
                                                                              

------------3---|------------------|----------------------------------------------
-3-----3-5--5---|-5------5---------|----------------------------------------------
-0-----0-5--5---|-5-----5---7--5---|----------------------------------------------
-0----0--5------|-7----7-----------|---x3-----------------------------------------
-2---2---3------|-7---7------------|----------------------------------------------
----------------|-5--5-------------|----------------------------------------------
                                                                              

--------------------|------------------|
-3-------3----------|-1------1--0------|
-4------4---5--4----|-2-----2------0---|
-5-----5------------|-3----3-----------|
-5----5-------------|-3---3------------|
-3---3--------------|-1--1-------------|
     now do everyhting above again. then do the first 8 bars, then go below   

-0-------0---------|--------------------|---------9-10--22---|
-1----------3---1--|-3-------3--1---0---|----2-3-------------|
-2------2----------|-0------0-----------|-2------------------|
-3-----3-----------|-2-----2------------|-0------------------|
-3----3------------|-2----2-------------|-0------------------|
-1---1-------------|-0---0--------------|--------------------|
                        rit (slow down)





Comments


Popular Smashing Pumpkins tabs & chords
Isolation 3 Bass Tabs
Cupid De Locke Chords
Home Chords
If There Is A God 1 Chords
Soma Chords
Song For A Son Chords
Bullet With Butterfly Wings 2 Tabs
Mellon Collie And The Infinite Sadness 1 Tabs
Mother 1 Tabs
Muzzle 1 Tabs


Song lyrics



↑ Back to top | Tablatures and chords are parodies/interpretations of the original songs. You may use it for private study, scholarship, research or language learning purposes only
© 2014 AZChords.com Contact us | Privacy policy | DMCA | Add/correct tabs | Request tabs | Top 50 tabs