» » »

Mayonnaise Tabs (ver.1)

Artists:  A B C D E F G H I J K L M N O P Q R S T U V W X Y Z # 

Mayonnaise Tabs (ver.1)

Smashing Pumpkins
Rating:
0/5 (0 votes)

Tabs too difficult? Try these video lessons and learn fast.
                
Intro: (Billy Parts)
|----------------------------------------| (Riff One)
|----------------------------------------|
|---4-----------7-----9----4-------------|
|--4-4----5----7-7---9-9--4---5----------|
|-2-----5--5--7-----9----2---5-5---------|
|-----3---------------------3------------| < Repeat threw whole song.

Intro: (James Parts) Riff One
|--------0-0-----0-----------------------| (Riff Two)
|--------3-3-2-3-4-----------------------|
|-2-/-4----------------------------------|
|----------------------------------------|
|----------------------------------------|
|----------------------------------------|

Intro: (James Parts) Riff Two
|----------------------------------------| (Riff Three)
|----------------------------------------|
|-4---4--4-4-4-4--4-4--------------------|
|-4---4--4-4-4-4--4-4--4---4--4-4-4-4----|
|-2---2--2-2-2-2--2-2--4---4--4-4-4-4----|
|----------------------2---2--2-2-2-2----| Repeat a few times & starts after where Billy the third time of playing his part.

Now the next part is full of power chords like what I just showed you on James second Riff. (Played with small distortion) 
P.S. 
~ = Quick Vibrato
^ = Pull Up
H = Hammer
S = slide
? = A part I don’t know (you wont find much of these)
()= Bend 

|-----------------------------------------------------| (Riff Four)
|-----------------------------------------------------|
|-4---4--4-4-4-4--4-4---------------------------------|
|-4---4--4-4-4-4--4-4--4---4--4-4-4-4-4--4-4----------|
|-2---2--2-2-2-2--2-2--4---4--4-4-4-4-4--4-4----------|
|----------------------2---2--2-2-2-2-2--2-2----------| Play this then slip down to this:

|--------------------------------------| (Riff Five)
|--------------------------------------|
|--------------------------------------|
|-3---3--3-3-3-3-3-3--3-3--------------|
|-3---3--3-3-3-3-3-3--3-3--------------|
|-1---1--1-1-1-1-1-1--1-1--------------|

Guitar Solo:
|------------------------|
|------------------------|
|------------------------|
|-2--2--3--4--5--6--7----|
|------------------------|
|-0--0--1--2--3--4--5----| Play this once then go into riff four and play it down again. 
P.S. those small, short little screeching sounds after every riff is played like this:

|-13^--|
|-13^--|
|-13^--|
|------|
|------|
|------| The play again it only with a vibrato instead of a pull up. 

The ending is played like this by the riff one only it is played with the second group of notes played on James first riff as well. 

And that is it! I hope you have fun with it!
								Thank You~!J
									Joseph C. Oliver
            
Tabs too difficult? Try these video lessons and learn fast.


comments powered by Disqus
↑ Back to top | Tablatures and chords are parodies/interpretations of the original songs. You may use it for private study, scholarship, research or language learning purposes only