>
 >
Marquis In Spades 3

Marquis In Spades 3 Guitar Tabs

Smashing Pumpkins - Marquis In Spades 3 chords, tabs, tablatures, lyrics

Guitar lessons | Add/correct | Request | Top 50 tabs Artists:  A B C D E F G H I J K L M N O P Q R S T U V W X Y Z 0-9

Marquis In Spades 3 Guitar Tabs – Smashing Pumpkins

CD, Sheet music, Poster

Do you like Marquis In Spades 3? Share with your friends now
Bass TabsBass Tabs v2TabsTabs v2Tabs v3Tabs v4
#------------------------------------------------------------------------------##
#

Group: The Smashing Pumpkins

This is a pretty cool song off the Zero single which I sat down and tabbed one night.  The tab symbols 
be fairly standard.  Any * above a rhythm line indicates a lead fill which should be tabbed immediately 

1)				    *1
E-|-----------------------------------------------------|
B-|----------/8--3-------------/8--3-------------/8--3--|
G-|--4-4-4---/8--3---2/4-4-4-4-/8--3--2/4-4-4-4--/8--3--|
D-|--5-5-5---/8--3---3/5-5-5-5-/8--3--3/5-5-5-5--/8--3--|
A-|--5-5-5---/6--1---3/5-5-5-5-/6--1--3/5-5-5-5--/6--1--|
E-|--3-3-3-----------1/3-3-3-3--------1/3-3-3-3---------|

*1
G-|--8h10-8---------------------------------------------|
D-|-----------8h10-8------------------------------------|

2)
E-|---------------------------------------|
B-|---------------------------------------|
G-|-3/5-5-5-5---7---7---7---10---10---10--|
D-|-3/5-5-5-5---7---7---7---10---10---10--|
A-|-3/5-5-5-5---7---7---7---10---10---10--|
E-|-1/3-3-3-3---5---5---5---8----8----8---|

3)
E-|------------------------------------------------------------|
B-|------------------------------8-8/10-10--3-3/5-5-5-5--5--5--|
G-|-4--4-------------------------8-8/10-10--3-3/5-5-5-5--5--5--|
D-|-5--5---5-3-------------------8-8/10-10--3-3/5-5-5-5--5--5--|
A-|-5--5--------5-4-3----3-5-5/6-6-6/8--8---1-1/3-3-3-3--3--3--|
E-|-3--3----------------6--------------------------------------|

4)				       *2
E-|-----------------------------------------------------|
B-|-----------------------------------------------------|
G-|-4--4----------------------4--4----------------------|
D-|-5--5---5-3----------------5--5---5-3----------------|
A-|-5--5--------5-4-3----3-5--5--5--------5-4-3----5-3--|
E-|-3--3----------------6-----3--3--------------6-------|

*2
E-|------------------------------------------------------------|
B-|--3-2-3-3/5-7-5-----------------------(grad)----------------|
G-|-------------------8-7-8--8h10-8h10-10b12------8h10-7---8-5-|
D-|------------------------------------------------------------|
A-|------------------------------------------------------------|
E-|------------------------------------------------------------|

5)
E-|---------------------------------------------|
B-|-3-3-3--3/5-5-5-5--5/8-8-8-8--8/10-10-10-10--|   repeat
G-|-3-3-3--3/5-5-5-5--5/8-8-8-8--8/10-10-10-10--|   x3
D-|-3-3-3--3/5-5-5-5--5/8-8-8-8--8/10-10-10-10--|
A-|-1-1-1--1/3-3-3-3--3/6-6-6-6--6/8--8---8--8--|
E-|---------------------------------------------|

6)
E-|------------------------------------------------|
B-|-3-3-3-3/5-5-5-5--------------------------------|
G-|-3-3-3-3/5-5-5-5--------------------------------|
D-|-3-3-3-3/5-5-5-5--3-3-3-3-3-3-3-3--3/5 (back)---|
A-|-1-1-1-1/3-3-3-3--3-3-3-3-3-3-3-3--3/5-(into)---|
E-|------------------1-1-0-0-1-1-0-0--1/3-(Riff 1)-|

(From now on any already tabbed riff is refered to by Riff #.)
Riff 1
Riff 2
Riff 3
Riff 5 (repeat x3)
Riff 6
Riff 1
Riff 2

7)
E-|-------------------------------------------------------------|
B-|-8-(hold)---------------5-5--5\3-3-3--3/8-8-8--8/10-10-10----|
G-|-8-(for)----4-----------5-5--5\3-3-3--3/8-8-8--8/10-10-10----|
D-|-8-(4)------5-(same)----5-5--5\3-3-3--3/8-8-8--8/10-10-10----|
A-|-6-(beats)--5-----------3-3--3\1-1-1--1/6-6-6--6/8--8--8-----|
E-|------------3------------------------------------------------|

8)
E-|--------------------------------------------|
B-|-5-(Hold)-----8-------------10--10---11--11-|
G-|-5-(for)------8-(same)------10--10---11--11-|
D-|-5-(4)--------8-------------10--10---11--11-|
A-|-3-(beats)----6-------------8---8----9---9--|
E-|--------------------------------------------|

Riff 1
Riff 2

9)		*3
E-|------------------------------------|
B-|------8-8--3-3--8/10-10-10-10--5-5--|
G-|-4-4--8-8--3-3--8/10-10-10-10--5-5--|   Repeat x4
D-|-5-5--8-8--3-3--8/10-10-10-10--5-5--|
A-|-5-5--6-6--1-1--6/8--8--8--8---3-3--|
E-|-3-3--------------------------------|

*3
E-|----------------------|
B-|-8-6------------------|
G-|------7-6-5---5-7-----|
D-|-------------8----8---|
A-|----------------------|
E-|----------------------|

10)
E-|---------------------------|
B-|-------------------------3-|
G-|-3/5--3-3--3/5-3--5--5-x-3-|  repeat x8
D-|-3/5--3-3--3/5-3--5--5-x-3-|
A-|-3/5--3-3--3/5-3--5--5-x-1-|
E-|-1/3--1-1--1/3-1--3--3-x---|

(Here's a Riff chronology from start to end for your convience. Read down the columns.)
Riff 1 		Riff 5		 Riff 10
Riff 2 		Riff 6
Riff 3		Riff 1       And that's the whole song! Once again
Riff 4		Riff 2       your comments/corrections/suggestions are
Riff 5 		Riff 7	 welcome! This is my first tab to post so
Riff 6 		Riff 8	 I'd like to get some feedback. Thanks!
Riff 1		Riff 1
Riff 2 		Riff 2
Riff 3		Riff 9





Comments


Popular Smashing Pumpkins tabs & chords
Girl Named Sandoz Bass Tabs
Set The Ray To Jerry 1 Bass Tabs
Dreaming 1 Chords
Mayonaise Chords
Bullet With Butterfly Wings 2 Tabs
Doomsday Clock 2 Tabs
Plume Tabs
Shame Tabs
X.Y.U. Tabs
Let Me Give The World To You Ukulele


Song lyrics



↑ Back to top | Tablatures and chords are parodies/interpretations of the original songs. You may use it for private study, scholarship, research or language learning purposes only
© 2014 AZChords.com Contact us | Privacy policy | DMCA | Add/correct tabs | Request tabs | Top 50 tabs