» » »

Smashing Pumpkins, Lucky Tabs (ver.1)

Artists:  A B C D E F G H I J K L M N O P Q R S T U V W X Y Z # 

Lucky Tabs (ver.1)

Smashing Pumpkins Tabs
 Rating:
4/5 (4 votes)
Lucky lessons Tabs too difficult? Try these video lessons and learn fast
                Artist - Smashing Pumpkins
Song - Lucky 13
Album - Judas O/Machina 2

Tuning - C, F, Bb, Eb, G, C 

Intro and main riff

|-------------------|------|
|-------------------|------|
|-------------------|------|
|-------------------|------| 
|-------------------|------|
|-1h3-3-3-3-2-1-1h3-|-6~/1-|
  Play x ?

Chorus

|-------------------------------------------------|
|-------------------------------------------------|
|-5-5-5-5-5-5-5-5-5-5-5-5/8-8-8-8-8-8-8-8-8-8-8-8-|
|-5-5-5-5-5-5-5-5-5-5-5-5/8-8-8-8-8-8-8-8-8-8-8-8-|
|-3-3-3-3-3-3-3-3-3-3-3-3/6-6-6-6-6-6-6-6-6-6-6-6-|
|-------------------------------------------------|
  Play x 2

Post-chorus

|---------------|
|---------------|
|---------------|
|---------------|
|---6-6^/2-5----|
|-0----------5^-|

|-------------------|------|
|-------------------|------|
|-------------------|------|
|-------------------|------| 
|-------------------|------|
|-1h3-3-3-3-2-1-1h3-|-6~/1-|
  Play x ?

|-------------------------------------------------|
|-------------------------------------------------|
|-5-5-5-5-5-5-5-5-5-5-5-5/8-8-8-8-8-8-8-8-8-8-8-8-|
|-5-5-5-5-5-5-5-5-5-5-5-5/8-8-8-8-8-8-8-8-8-8-8-8-|
|-3-3-3-3-3-3-3-3-3-3-3-3/6-6-6-6-6-6-6-6-6-6-6-6-|
|-------------------------------------------------|
  Play x 2

|---------------|
|---------------|
|---------------|
|---------------|
|---6-6^/2-5----|
|-0----------5^-|

Middle 8

|---------------|-------------------|
|---------------|-------------------|
|---------------|-------------------|
|---------------|-------------------|
|-5^------------|-------------------|
|--------5^-----|-1h3-3-3-3-2-1-1h3-|
  Play x 2      |
            
Submit corrections

comments powered by Disqus
↑ Back to top | Smashing Pumpkins Tabs for Lucky. Lyrics for acoustic guitar and electric guitar. Tablatures and chords are parodies/interpretations of the original songs. You may use it for private study, scholarship, research or language learning purposes only