» » »

Smashing Pumpkins, Love Bass tabs (ver.2)

Artists:  A B C D E F G H I J K L M N O P Q R S T U V W X Y Z # 

Love Bass tabs (ver.2)

Smashing Pumpkins Tabs
Rating:
0/5 (0 votes)
Love lessons Tabs too difficult? Try these video lessons and learn fast
                -------------------------------------------------------------------------------
			     Love - Smashing Pumpkins
-------------------------------------------------------------------------------


 Tuning:Drop D
 Intro (0.05)
G|---------------------------------------------------------|
D|---------------------------------------------------------|
A|---------------------------------------------------------|
D|5-5-5-5-5-5-5-5-5-5-5-5-5-5-5-5-5-5-5-5-5-5-5-5-5-5-5-5--|

 Verse "To my mistake,...."
G|--------------------------------------------------------------------------|
D|--------------------------------------------------------------------------|
A|--------------------------------------------------------------------------|
D|5-5-5-5-5-5-5-5-5-5-5-5-5-5-5-5-5-5-5-5-5-5-5-5-5-5-5-5--9-9-9-9-1-1-1-1--|

G|-------------------------------------------------------------------------|
D|-------------------------------------------------------------------------|
A|-------------------------------------------------------------------------|
D|5-5-5-5-5-5-5-5-5-5-5-5-5-5-5-5-5-5-5-5-5-5-5-5-5-5-5-5-9-9-9-9-1-1-1-1--|

G|-------------------------------------------------------------------------|
D|-------------------------------------------------------------------------|
A|-------------------------------------------------------------------------|
D|5-5-5-5-5-5-5-5-5-5-5-5-5-5-5-5-5-5-5-5-5-5-5-5-5-5-5-5-9-9-9-9-1-1-1-1--|

G|-----------------------------------------------|
D|-----------------------------------------------|
A|-----------------------------------------------|
D|5-5-5-5-5-5-5-5-5-5-5-5-5-5-5-5-9-9-9-1-1-1-1--|

 Pre-Chorus
G|---------------------------------------------------------|
D|---------------------------------------------------------|
A|---------------------------------------------------------|
D|1-1-1-1-1-1-1-1-1-1-1-1-3-3-3-3-3-3-3-3-3-3-3-3-3-3-3-3--|

 Chorus
G|-------------------------------------|
D|-------------------------------------|
A|-------------------------------------|
D|5-5-5-5-8-8-8-8-11-11-11-11-1-1-1-1--|

G|-------------------------------------|
D|-------------------------------------|
A|-------------------------------------|
D|5-5-5-5-8-8-8-8-11-11-11-11-1-1-1-1--|

G|-------------------------------------|
D|-------------------------------------|
A|-------------------------------------|
D|8-8-8-8-11-11-11-11-1-1-1-1-3-3-3-3--|

G|-------------------------------------|
D|-------------------------------------|
A|-------------------------------------|
D|5-5-5-5-8-8-8-8-11-11-11-11-1-1-1-1--|

 Verse
 Pre-Chorus
 Chorus

 Post-Chorus
G|---------------------------------------------------------------------------------------|
D|---------------------------------------------------------------------------------------|
A|---------------------------------------------------------------------------------------|
D|1~-----1~---111-1--1~------------------------------------------------------------------|

 Bridge x4
G|-------------------------------------|
D|-------------------------------------|
A|-------------------------------------|
D|5-5-5-5-8-8-8-8-11-11-11-11-1-1-1-1--|

 Pre-Chorus x2
 Chorus
G|--------------------------------------------------------------------------|
D|--------------------------------------------------------------------------|
A|--------------------------------------------------------------------------|
D|5-5-5-5-8-8-8-8-11-11-11-11-1-1-1-1--5-5-5-5-8-8-8-8-11-11-11-11-1-1-1-1--|

G|--------------------------------------------------------------------------|
D|--------------------------------------------------------------------------|
A|--------------------------------------------------------------------------|
D|8-8-8-8-11-11-11-11-1-1-1-1-3-3-3-3--8-8-8-8-11-11-11-11-1-1-1-1-3-3-3-3--|

G|--------------------------------------------------------------------------|
D|--------------------------------------------------------------------------|
A|--------------------------------------------------------------------------|
D|5-5-5-5-8-8-8-8-11-11-11-11-1-1-1-1--5-5-5-5-8-8-8-8-11-11-11-11-1-1-1-1--|

G|---------------------------------------------------------------------------|
D|---------------------------------------------------------------------------|
A|---------------------------------------------------------------------------|
D|5-5-5-5-8-8-8-8-11-11-11-11-1-1-1-1--5-5-5-5-8-8-8-8-11-11-11-11-1-1-1-1~--|

 Breakdown
G|---------------------------------------------------------|
D|---------------------------------------------------------|
A|---------------------------------------------------------|
D|5-5-5-5-5-5-5-5-5-5-5-5-5-5-5-5-5-5-5-5-5-5-5-5-5-5-5-5--|

G|----------------------------|
D|----------------------------|
A|----------------------------|
D|1-3-5-5-5-8-8-8-8-1-1-3-5~--|

 Outro
G|-----------------------------------------------------------------------------------|
D|-----------------------------------------------------------------------------------|
A|-----------------------------------------------------------------------------------|
D|5~---------------5~------5~--------------------------------------------------------|


| /  slide up
| \  slide down
| h  hammer-on
| p  pull-off
| ~  vibrato
| +  harmonic
| x  Mute note
===============================================================================
            
Submit corrections

comments powered by Disqus
↑ Back to top | Smashing Pumpkins Bass for Love. Lyrics for acoustic guitar and electric guitar. Tablatures and chords are parodies/interpretations of the original songs. You may use it for private study, scholarship, research or language learning purposes only