» » »

Smashing Pumpkins, Love Tabs (ver.3)

Artists:  A B C D E F G H I J K L M N O P Q R S T U V W X Y Z # 

Love Tabs (ver.3)

Smashing Pumpkins Tabs
Rating:
0/5 (0 votes)
Love lessons Tabs too difficult? Try these video lessons and learn fast
                -------------------------------------------------------------------------------
                             LOVE - The Smashing Pumpkins
-------------------------------------------------------------------------------


Tuning:Eb Ab Db Gb Bb Eb


INTRO 

Guitar 1(Flanger?)
Eb|-----------------|
Bb|-----------------|
Gb|-----------------|
Db|-----------------|
Ab|-6-6-6-6-6-6-6-6-|
Eb|-4-4-4-4-4-4-4-4-|

Guitar 2
Eb|-----|
Bb|-----|
Gb|-----|X4
Db|-666-|
Ab|-666-|
Eb|-444-|


VERSE 1
(To my mistakes, to my mistakes of cowardice...)

Guitar 1
Eb|-----------------|  |
Bb|-----------------|  |
Gb|-----------------|  |
Db|-----------------|  |
Ab|-6-6-6-6-6-6-6-6-|  |
Eb|-4-4-4-4-4-4-4-4-|  |
                       | X4
Eb|-----------------|  |
Bb|-----------------|  |
Gb|-----------------|  |
Db|-4-4-4-4---------|  |
Ab|-2-2-2-2-2-2-2-2-|  |
Eb|---------0-0-0-0-|  |

Guitar 2
Eb|-----|   |
Bb|-----|   |
Gb|-----|X4 |
Db|-666-|   |
Ab|-666-|   |
Eb|-444-|   |
            |
Eb|-----|   |
Bb|-----|   |
Gb|-444-|   | X4
Db|-444-|   |
Ab|-222-|   |
Eb|-----|   |
            |
Eb|-----|   |
Bb|-----|   |
Gb|-----|   |
Db|-222-|   |
Ab|-222-|   |
Eb|-000-|   |


PRE-CHORUS 1
(It's what you wanted to see, it's what you wanted to be...)

Guitar 1
Eb|-----------------|
Bb|-----------------|
Gb|-----------------|
Db|-2222222-4444444-|
Ab|-2222222-4444444-|
Eb|-0000000-2222222-|

Guitar 2
Eb|----------------------------------|
Bb|----------------------------------|
Gb|----------------------------------|
Db|----------------------------------|
Ab|-11111111111111111313131313131313-|
Eb|-0-0-0-0-0-0-0-0-0-0-0-0-0-0-0-0--|


CHORUS 1
(Love, love, it's who you know...)

Guitar 1
Eb|----------------|
Bb|----------------|
Gb|----44-66-------|X2
Db|-66-44-66-22(4)-|
Ab|-66-22-44-22(4)-|
Eb|-44-------00(2)-|

Eb|----------------|
Bb|----------------|
Gb|-44-66----------|
Db|-44-66-22-44(5)-|
Ab|-22-44-22-44(5)-|
Eb|-------00-22(3)-|

Eb|------------|
Bb|------------|
Gb|----44-66---|
Db|-66-44-66-2-|
Ab|-66-22-44-2-|
Eb|-44-------0-|

Guitar 2 
Eb|-16/14-16/14-|
Bb|-------------|
Gb|-------------|X4
Db|-------------|
Ab|-------------|
Eb|-------------|


VERSE 2
(Machine gun blues, her vacant rush is so steel...)

Guitar 1
Eb|-----------------|  |
Bb|-----------------|  |
Gb|-----------------|  |
Db|-----------------|  |
Ab|-6-6-6-6-6-6-6-6-|  |
Eb|-4-4-4-4-4-4-4-4-|  |
                       | X4
Eb|-----------------|  |
Bb|-----------------|  |
Gb|-----------------|  |
Db|-4-4-4-4---------|  |
Ab|-2-2-2-2-2-2-2-2-|  |
Eb|---------0-0-0-0-|  |

Guitar 2
Eb|-----|   |
Bb|-----|   |
Gb|-----|X4 |
Db|-666-|   |
Ab|-666-|   |
Eb|-444-|   |
            |
Eb|-----|   |
Bb|-----|   |
Gb|-444-|   | X4
Db|-444-|   |
Ab|-222-|   |
Eb|-----|   |
            |
Eb|-----|   |
Bb|-----|   |
Gb|-----|   |
Db|-222-|   |
Ab|-222-|   |
Eb|-000-|   |


PRE-CHORUS 2
(It's what you wanted to see, it's what you wanted to be...)

Guitar 1
Eb|-----------------|
Bb|-----------------|
Gb|-----------------|
Db|-2222222-4444444-|
Ab|-2222222-4444444-|
Eb|-0000000-2222222-|

Guitar 2
Eb|----------------------------------|
Bb|----------------------------------|
Gb|----------------------------------|
Db|----------------------------------|
Ab|-11111111111111111313131313131313-|
Eb|-0-0-0-0-0-0-0-0-0-0-0-0-0-0-0-0--|



CHORUS 2
(Love, love, it's who you know...)

Guitar 1
Eb|----------------|
Bb|----------------|
Gb|----44-66-------|X2
Db|-66-44-66-22(4)-|
Ab|-66-22-44-22(4)-|
Eb|-44-------00(2)-|

Eb|----------------|
Bb|----------------|
Gb|-44-66----------|
Db|-44-66-22-44(5)-|
Ab|-22-44-22-44(5)-|
Eb|-------00-22(3)-|

Eb|------------|
Bb|------------|
Gb|----44-66---|
Db|-66-44-66-2-|
Ab|-66-22-44-2-|
Eb|-44-------0-|

Guitar 2 
Eb|-16/14-16/14-|
Bb|-------------|
Gb|-------------|X4
Db|-------------|
Ab|-------------|
Eb|-------------|


SOLO

Guitar 1
Eb|----------------|
Bb|----------------|
Gb|----44-66-------|X2
Db|-66-44-66-22(4)-|
Ab|-66-22-44-22(4)-|
Eb|-44-------00(2)-|

Eb|----------------|
Bb|----------------|
Gb|-44-66----------|
Db|-44-66-22-44(5)-|
Ab|-22-44-22-44(5)-|
Eb|-------00-22(3)-|

Eb|------------|
Bb|------------|
Gb|----44-66---|
Db|-66-44-66-2-|
Ab|-66-22-44-2-|
Eb|-44-------0-|

Guitar 2

Eb|----------------------------------|
Bb|----------------------------------|
Gb|----------------------------------|
Db|----------------------------------|
Ab|-14-14b16/14----16b18/16-16b18/16-|
Eb|-------------16-------------------|

Eb|-----------------------------------|
Bb|-----------------------------------|
Gb|-----------------------------------|
Db|-----------------------------------|
Ab|-16b18/16-16b18/16-16b18/16--------|
Eb|----------------------------14-16--|

Eb|-----------------------------------|
Bb|-----------------------------------|
Gb|-------------------------------16b-|
Db|-------------16b18/16-18b20/18-----|
Ab|-14-16-16b18-----------------------|
Eb|-----------------------------------|

Eb|-------------------|
Bb|-------------------|
Gb|-18b20/18-16---16b-|
Db|-------------18----|
Ab|-------------------|
Eb|-------------------|

Eb|-------------19b21/19-16b--------------------|
Bb|-19b21/19-16---------------------------------|
Gb|--------------------------18b20/18-16----16b-|
Db|--------------------------------------18-----|
Ab|---------------------------------------------|
Eb|---------------------------------------------|

Eb|---------16-19b21-|
Bb|------16----------|
Gb|-18b20------------|
Db|------------------|
Ab|------------------|
Eb|------------------|


PRE-CHORUS 3
(Can I look up to you as you look down on me? ...)

Guitar 1
Eb|-----------------|
Bb|-----------------|
Gb|-----------------|X2
Db|-2222222-4444444-|
Ab|-2222222-4444444-|
Eb|-0000000-2222222-|

Guitar 2
Eb|----------------------------------|
Bb|----------------------------------|
Gb|----------------------------------|X2
Db|----------------------------------|
Ab|-11111111111111111313131313131313-|
Eb|-0-0-0-0-0-0-0-0-0-0-0-0-0-0-0-0--|


CHORUS 3
(Love, love, is who you know...)

Guitar 1
Eb|----------------|
Bb|----------------|
Gb|----44-66-------|X2
Db|-66-44-66-22(4)-|
Ab|-66-22-44-22(4)-|
Eb|-44-------00(2)-|

Eb|----------------|
Bb|----------------|
Gb|-44-66----------|
Db|-44-66-22-44(5)-|
Ab|-22-44-22-44(5)-|
Eb|-------00-22(3)-|

Eb|------------|
Bb|------------|
Gb|----44-66---|
Db|-66-44-66-2-|
Ab|-66-22-44-2-|
Eb|-44-------0-|

Guitar 2 
Eb|-16/14-16/14-|
Bb|-------------|
Gb|-------------|X4
Db|-------------|
Ab|-------------|
Eb|-------------|


OUTRO
(Love solves everything! Love...)

Guitar 1 (Fading out)
Eb|-----------------|
Bb|-----------------|
Gb|-----------------|
Db|-----------------|
Ab|-6-6-6-6-6-6-6-6-|
Eb|-4-4-4-4-4-4-4-4-|

Guitar 2
Eb|-----------------------------------|
Bb|-----------------------------------|
Gb|-----------------------------------|
Db|-666666-999999-1111111111116-----6-|
Ab|-666666-999999-1111111111116-----6-|
Eb|-444444-777777-9-9-9-9-9-9-4-----4-|
            
Submit corrections

comments powered by Disqus
↑ Back to top | Smashing Pumpkins Tabs for Love. Lyrics for acoustic guitar and electric guitar. Tablatures and chords are parodies/interpretations of the original songs. You may use it for private study, scholarship, research or language learning purposes only