>
 >
Jellybelly Newest

Jellybelly Newest Bass Tabs

Smashing Pumpkins - Jellybelly Newest chords, tabs, tablatures, lyrics

Guitar lessons | Add/correct | Request | Top 50 tabs Artists:  A B C D E F G H I J K L M N O P Q R S T U V W X Y Z 0-9

Jellybelly Newest Bass Tabs – Smashing Pumpkins

CD, Sheet music, Poster

Do you like Jellybelly Newest? Share with your friends now
Bass Tabs
Jellybelly



This is probably the most complete tab of this
song you'll find.i've taken a peek at other tabs
but added most of this myself. i'm just going to
lay all the riffs on you, i'm not going to bother
writing down every detail and orders of them. ps.
this is a killer song to play even though you
practically don't hear the bass...


?|                                  intro/break|
G|---------------------------------------------|
D|---------------------------------------------|     
A|--5p4p0--5p4p0--5p4p0--5p4p0--5p4-5p4--0-----|     
E|---------------------------------------------|	    
							    
You can play E|3, A|3 and A|12 respectivley if you	
wanna pretend that you're the James Iha and not D'Arcy..


To many people have gotten this riff wrong, or at
least written it in a really stupid way. This is
?|                                         main|
G|---------------------------------------------|
D|---------------------------------------------|
A|----3h5-3--33--------------------------------|
E|--0-----------33--3--------------------------|


It's really hard to hear what they play in the
verses, especially how many 3's there are, but i
think three of them sounds good.
?|                                      verse 1|
G|----------------|----------------------------|
D|----------------|----------------------------|
A|--------3--3--3-|--(main riff once)----------|
E|--0--0----------|----------------------------|

?|                                    prechorus|
G|---------------------------------------------|
D|---------------------------------------------|
A|--------3--3-(could be fun to slide up to ten| 
E|--0--0-------or twelve instead of the last 3)|


?|                                       chorus|
G|---------------------------------------------|
D|---------------------------------------------|
A|------------333333333-----------55-77-99-1212|
E|--000000000-----------555555555--------------|


?|                                      verse 2|
G|-----------------|---------------------------|
D|-----------------|---------------------------|
A|-------33-33-3-3-|--55-33-55--33--5--5-------|
E|--0--0-----------|---------------------------|


?|                                      verse 2|
G|-----------------|---------------------------|
D|-----------------|---------------------------|
A|-------22-22-3-5-|--44-55--77--99--1010------|
E|--0--0-----------|---------------------------|


?|                                post chorus 2|
G|---------------------------------------------|
D|---------------------------------------------|
A|--55-33--55--33-5--5--(play 3 times)---------|
E|---------------------------------------------|


?|                          pre-super breakdown|
G|------------------|--------------------------|
D|------------------|--------------------------|
A|--33---77-77-7--7-|--------------------------|
E|----------------- |-5-5--33--3--3-3----------|


This one is really hard to hear/tab. I like to play
this, with a little improv.
?|                              super breakdown|
G|---------------------------------------------|
D|---------------------------------------------|
A|---------------------------------------------|
E|-00-11-22-33-44-55-66--(and so on until 15)--|


?|            "to make yourself feel better..."|
G|---------------------|-----------------------|
D|---------------------|-----------------------|
A|--------33-33--3--3--|-----------------------|
E|--0--0-------------- |-0--0--55-5--55--------|


?|                      play this the last time|
G|---------------------|-----------------------|
D|---------------------|-----------------------|
A|--------33-33--3--3--|-----------------------|
E|--0--0-------------- |-55--55--55--55--5--5--|

That's all. question? you have my e-mail at the top.




**D'arcy is booring**





Comments


Popular Smashing Pumpkins tabs & chords
Believe Bass Tabs
Let Me Give The World To You Bass Tabs
Mouths Of Babes Bass Tabs
Sad Peter Pan 3 Bass Tabs
Siva Chords
Disarm 3 Tabs
Lucky 13 Tabs
Porcelina Of The Vast Oceans Tabs
Ugly 2 Tabs
Zero Tabs


Song lyrics



↑ Back to top | Tablatures and chords are parodies/interpretations of the original songs. You may use it for private study, scholarship, research or language learning purposes only
© 2014 AZChords.com Contact us | Privacy policy | DMCA | Add/correct tabs | Request tabs | Top 50 tabs