>
 >
Jellybelly 2

Jellybelly 2 Guitar Tabs

Smashing Pumpkins - Jellybelly 2 chords, tabs, tablatures, lyrics

Guitar lessons | Add/correct | Request | Top 50 tabs Artists:  A B C D E F G H I J K L M N O P Q R S T U V W X Y Z 0-9

Jellybelly 2 Guitar Tabs – Smashing Pumpkins

CD, Sheet music, Poster

Do you like Jellybelly 2? Share with your friends now
Bass TabsTabsTabs v2Tabs v3
JELLYBELLY
BY SMASHING PUMPKINS
EGAHDS BATMAN, IT's DROP-D TUNING!!!!

INRTO (AFTER EACH REPEAT PLAY FILLS IN ORDER)
||-------------------------------------------||
||::---------------------------------------::||
||-------------------------------------------||
||----5\4-0-5\4-0-5\4-0-5\4-0--5\4-5\4--0----||
||::--5\4-0-5\4-0-5\4-0-5\4-0--5\4-5\4--0--::||
||----5\4-0-5\4-0-5\4-0-5\4-0--5\4-5\4--0----||


FILL A          FILL B                  FILL C
--------------  ----------------------  -----------------------|
--------------  -------BIG BEND-------  -----------------------|
--------------  ---------^------------  -----------------------|
--------------  -------^---^----------  -----------------------|
--12----------  -----^-------^--------  --5/9-----13----10/13--|
--------------  ----2----------2------  -------6/--------------|


||------------------------------------||
||------------------------------------||
||------------------------------------||
||--5\4-0-5\4-0-5\4-0-5\4-0--5\4-5\4--||
||--5\4-0-5\4-0-5\4-0-5\4-0--5\4-5\4--||
||--5\4-0-5\4-0-5\4-0-5\4-0--5\4-5\4--||


Fig. A (3Xs)
||---------------------------------||
||::-----------------------------::||
||---------------------------------||
||----000-10^12-12-10--10-00-55----||
||::--000-10^12-12-10--10-00-55--::||
||----000-10^12-12-10--10-00-55----||


Fig. A OUTRO
||----------------------------------||
||----------------------------------||
||----------------------------------||
||--000-10^12-12-0-5\4-0-5\4-0-5\4--||
||--000-10^12-12-0-5\4-0-5\4-0-5\4--||
||--000-10^12-12-0-5\4-0-5\4-0-5\4--||


VERSE ONE (3Xs)
||----------------------------------------------------------||
||::------------------------------------------------------::||
||----------------------------------------------------------||
||----/7777-10-10-10-10-10-10--000-10^12-12-10--10-00-55----||
||::--/7777-10-10-10-10-10-10--000-10^12-12-10--10-00-55--::||
||----/7777-10-10-10-10-10-10--000-10^12-12-10--10-00-55----||



VERSE ONE END
--------------------||
--------------------||
--------------------||
-/7777-10-10-10-555-||
-/7777-10-10-10-555-||
-/7777-10-10-10-555-||


CHORUS
--------------------------------------------------------------|
--------------------------------------------------------------|
--------------------------------------------------------------|
0000000-14-14-14-14-14\12-12-12-12-12-12-12-12-12-12-77777777-|
0000000-12-12-12-12-12\10-10-10-10-10-10-10-10-10-10-55555555-|
0000000-12-12-12-12-12\10-10-10-10-10-10-10-10-10-10-55555555-|


CHORUS
--------------------------|
--------------------------|
---7---9---11----14-14-14-|
---X---X----X-----X--X--X-|
---5---7----9----12-12-12-|
-0---0---0----0-----------|


CHORUS
--------------------------------------------------------------|
--------------------------------------------------------------|
--------------------------------------------------------------|
0000000-14-14-14-14-14\12-12-12-12-12-12-12-12-12-12-77777777-|
0000000-12-12-12-12-12\10-10-10-10-10-10-10-10-10-10-55555555-|
0000000-12-12-12-12-12\10-10-10-10-10-10-10-10-10-10-55555555-|


Fig. A (3Xs)
||---------------------------------||
||::-----------------------------::||
||---------------------------------||
||----000-10^12-12-10--10-00-55----||
||::--000-10^12-12-10--10-00-55--::||
||----000-10^12-12-10--10-00-55----||

Fig. A OUTRO
||----------------------------------||
||----------------------------------||
||----------------------------------||
||--000-10^12-12-0-5\4-0-5\4-0-5\4--||
||--000-10^12-12-0-5\4-0-5\4-0-5\4--||
||--000-10^12-12-0-5\4-0-5\4-0-5\4--||



VERSE TWO
----------------------------------------------------|
----------------------------------------------------|
----------------------------------------------------|
--77777-10-10-10-10-10-10----12---10---12---10---55-|
--77777-10-10-10-10-10-10----12---10---12---10---55-|
--77777-10-10-10-10-10-10--0-12-0-10-0-12-0-10-0-55-|


VERSE TWO
----------------------------------------------|
----------------------------------------------|
----------------------------------------------|
--77777-10-10-10-0-55-0-4-0-5-0-7-0-9-0-10-10-|
--77777-10-10-10-0-55-0-4-0-5-0-7-0-9-0-10-10-|
--77777-10-10-10-0-55-0-4-0-5-0-7-0-9-0-10-10-|


VERSE TWO
----------------------------------------------------|
----------------------------------------------------|
----------------------------------------------------|
--77777-10-10-10-10-10-10----12---10---12---10---55-|
--77777-10-10-10-10-10-10----12---10---12---10---55-|
--77777-10-10-10-10-10-10--0-12-0-10-0-12-0-10-0-55-|


VERSE TWO
----------------------------------------------------|
----------------------------------------------------|
----------------------------------------------------|
--77777-10-10-10-10-10-10-10-10---------------------|
--77777-10-10-10-10-10-10-10-10---------------------|
--77777-10-10-10-10-10-10-10-10---------------------|


CHORUS
CHORUS
--------------------------------------------------------------|
--------------------------------------------------------------|
--------------------------------------------------------------|
0000000-14-14-14-14-14\12-12-12-12-12-12-12-12-12-12-77777777-|
0000000-12-12-12-12-12\10-10-10-10-10-10-10-10-10-10-55555555-|
0000000-12-12-12-12-12\10-10-10-10-10-10-10-10-10-10-55555555-|



CHORUS
---------------------------|
---------------------------|
----7---9---11----14-14-14-|
----X---X----X-----X--X--X-|
----5---7----9----12-12-12-|
--0---0---0----0-----------|


CHORUS
CHORUS
--------------------------------------------------------------|
--------------------------------------------------------------|
--------------------------------------------------------------|
0000000-14-14-14-14-14\12-12-12-12-12-12-12-12-12-12-77777777-|
0000000-12-12-12-12-12\10-10-10-10-10-10-10-10-10-10-55555555-|
0000000-12-12-12-12-12\10-10-10-10-10-10-10-10-10-10-55555555-|


PLAY 3 Xs
||--------------------------------||
||::----------------------------::||
||--------------------------------||
||----0-12-0-10-0-12-0-10-0-55----||
||::--0-12-0-10-0-12-0-10-0-55--::||
||----0-12-0-10-0-12-0-10-0-55----||


BRIDGE A
||----------------------------------------------------||
||::------------------------------------------------::||
||----------------------------11-11-11-11-11----------||
||----6666/11-11-11-11-11-00---X--X--X--X--X-77777----||
||::--4444/-9--9--9--9--9-00---9--9--9--9--9-55555--::||
||----4444/-9--9--9--9--9-00---0--0--0--0--0-55555----||


BRIDGE A END
||-------------------------||
||-------------------------||
||-------------------------||
||-6666/11-11-11-11-11-00--||
||-4444/-9--9--9--9--9-00--||
||-4444/-9--9--9--9--9-00--||


CLIMB INTO MADNESS…
------------------------------//----------------------------|
------------------------------//----------------------------|
------------------------------//----------------------------|
-0123456789-10-10-11-12-13-14-15-------16TH PICKING---------|
-0123456789-10-10-11-12-13-14-15---WHILE SLOWLY SLIDING UP--|
-0123456789-10-10-11-12-13-14-15----------------------------|


Fig. A (3Xs)
||---------------------------------||
||::-----------------------------::||
||---------------------------------||
||----000-10^12-12-10--10-00-55----||
||::--000-10^12-12-10--10-00-55--::||
||----000-10^12-12-10--10-00-55----||


Fig. A OUTRO
||----------------------------------||
||----------------------------------||
||----------------------------------||
||--000-10^12-12-0-5\4-0-5\4-0-5\4--||
||--000-10^12-12-0-5\4-0-5\4-0-5\4--||
||--000-10^12-12-0-5\4-0-5\4-0-5\4--||


BRIDGE 2
-----------------------------------------------------------|
-----------------------------------------------------------|
-----------------------------------------------------------|
-7777-10-10-10-10-10-0000-2222-5555-7777-10-10-10-10-00000-|
-7777-10-10-10-10-10-0000-2222-5555-7777-10-10-10-10-00000-|
-7777-10-10-10-10-10-0000-2222-5555-7777-10-10-10-10-00000-|


BRIDGE 2
------------------------------------------------------|
------------------------------------------------------|
------------------------------------------------------|
-22222-5555--7777-10-10-10-10-00000-22222-55555555555-|
-22222-5555--7777-10-10-10-10-00000-22222-55555555555-|
-22222-5555--7777-10-10-10-10-00000-22222-55555555555-|



CHORUS
CHORUS
--------------------------------------------------------------|
--------------------------------------------------------------|
--------------------------------------------------------------|
0000000-14-14-14-14-14\12-12-12-12-12-12-12-12-12-12-77777777-|
0000000-12-12-12-12-12\10-10-10-10-10-10-10-10-10-10-55555555-|
0000000-12-12-12-12-12\10-10-10-10-10-10-10-10-10-10-55555555-|


CHORUS
--------------------------|
--------------------------|
---7---9---11----14-14-14-|
---X---X----X-----X--X--X-|
---5---7----9----12-12-12-|
-0---0---0----0-----------|


CHORUS
--------------------------------------------------------------|
--------------------------------------------------------------|
--------------------------------------------------------------|
0000000-14-14-14-14-14\12-12-12-12-12-12-12-12-12-12-77777777-|
0000000-12-12-12-12-12\10-10-10-10-10-10-10-10-10-10-55555555-|
0000000-12-12-12-12-12\10-10-10-10-10-10-10-10-10-10-55555555-|


Fig. A (3Xs)
||---------------------------------||
||::-----------------------------::||
||---------------------------------||
||----000-10^12-12-10--10-00-55----||
||::--000-10^12-12-10--10-00-55--::||
||----000-10^12-12-10--10-00-55----||


Fig. A OUTRO
||------------------------------------------------------||
||------------------------------------------------------||
||------------------------------------------------------||
||--000-10^12-12-0-5\4-0-5\4-0-5\4-0-5\4-0--5\4-5\4--0--||
||--000-10^12-12-0-5\4-0-5\4-0-5\4-0-5\4-0--5\4-5\4--0--||
||--000-10^12-12-0-5\4-0-5\4-0-5\4-0-5\4-0--5\4-5\4--0--||


OUTRO
-------------------------------|
-----------^-------------------|
----------^-^------------------|
-0--0----^---^-----------------|
-0--0--14-----14\--------------|
-0--0--------------------------|
       *TRILL BEND, 1/2

OUTRO
----------------------------------------------------|
----------------------------------------------------|
----------------------------------------------------|
5\4-0-5\4-0-5\4-0-5\4-0--5\4-5\4--0--X\-------------|
5\4-0-5\4-0-5\4-0-5\4-0--5\4-5\4--0--X\-------------|
5\4-0-5\4-0-5\4-0-5\4-0--5\4-5\4--0--X\-------------|
                                     *pick slide

OUTRO
--------------------------------------------------------------|
--------------------------------------------------------------|
--------------------------------------------------------------|
5\4-0-5\4-0-5\4-0-5\4-0--5\4-5\4--7-7-7-77--------------------|
5\4-0-5\4-0-5\4-0-5\4-0--5\4-5\4--7-7-7-77--/12-12-12-12-12\--|
5\4-0-5\4-0-5\4-0-5\4-0--5\4-5\4--7-7-7-77--------------------|


OUTRO
------------------------------------------------------------||
----------------------------------------------------0----x--||
------------------------------------------------------------||
-0-0-5\4-0-5\4-0-5\4-0-5\4-0--5\4-5\4--0----12\-------------||
-0-0-5\4-0-5\4-0-5\4-0-5\4-0--5\4-5\4--0----12\-------------||
-0-0-5\4-0-5\4-0-5\4-0-5\4-0--5\4-5\4--0----12\-------------||





Comments


Popular Smashing Pumpkins tabs & chords
Galapos Bass Tabs
Set The Ray To Jerry Bass Tabs
Do You Close Your Eyes Chords
Real Love Chords
Rhinoceros Chords
Song For A Son Chords
17 Tabs
Landslide 2 Tabs
Love 2 Tabs
Take Me Down Tabs


Song lyrics



↑ Back to top | Tablatures and chords are parodies/interpretations of the original songs. You may use it for private study, scholarship, research or language learning purposes only
© 2014 AZChords.com Contact us | Privacy policy | DMCA | Add/correct tabs | Request tabs | Top 50 tabs