» » »

Jelly Belly Bass tabs (ver.1)

Artists:  A B C D E F G H I J K L M N O P Q R S T U V W X Y Z # 

Jelly Belly Bass tabs (ver.1)

Smashing Pumpkins
Rating:
0/5 (0 votes)

Hard to play? Try these video lessons and learn fast.
                Smashing Pumpkins
"Jelly Belly"
Mellon Collie and the Infinite Sadness
__________________________________________

I play this in an odd tuning (Db, A, D, G), but I think it's easier

Intro:
 G|-----------------------------------|
 D|-----------------------------------|
 A|-----------------------------------|
Db|--4p3p0--4p3p0--4p3p0--4p3p0---0---|

Pre-Verse:
  G|----------------------      -----------------------------|
  D|---------------------- (3x) -----------------------------|  (1x)
  A|-------2h4------------      --------2h4------------------|
 Db|--0-0-------0-0--5-5--      --0-0--------4p3p0---4p3p0---|

Verse:
  G|--------------------------------------------|
  D|--------------------------------------------|
  A|--4-4-4-4--2-2-2-2--------2h4---------------|
 Db|---------------------0-0-------0-0---5-5----|

Chorus:
  G|------------------------------------------|
  D|------------------------------------------|
  A|--4-4-4-4--2-2-2-2--1-1-1-1-----4--6---8--|
 Db|------------------------------------------|

Bridge:
  G|-----------------------------|
  D|-----------------------------|
  A|--4-4-4-4--2-2-2-2--1-1-1-1--|
 Db|-----------------------------|
            
Hard to play? Try these video lessons and learn fast. | Correct




comments powered by Disqus
↑ Back to top | Tablatures and chords are parodies/interpretations of the original songs. You may use it for private study, scholarship, research or language learning purposes only