» » »

Smashing Pumpkins, Jelly Belly Tabs (ver.1)

Artists:  A B C D E F G H I J K L M N O P Q R S T U V W X Y Z # 

Jelly Belly Tabs (ver.1)

Smashing Pumpkins Tabs
 Rating:
4/5 (4 votes)
Jelly Belly lessons Tabs too difficult? Try these video lessons and learn fast
                
JELLY BELLY - by the Smashing Pumpkins from the album

[Db, Ab, Db, Gb, Bb, Eb]

Intro

G1 and G2 heavy distortion

|------------------------------------------------------
|------------------------------------------------------
|------------------------------------------------------
|-5p4p0-5p4p0-5p4p0-5p4p0-5p4p0-0----------------------
|-5p4p0-5p4p0-5p4p0-5p4p0-5p4p0-0----------------------
|-5p4p0-5p4p0-5p4p0-5p4p0-5p4p0-0-------------/12~~~\--

|------------------------------------------------------
|------------------------------------------------------
|------------------------------------------------------
|-5p4p0-5p4p0-5p4p0-5p4p0-5p4p0-0----------------------
|-5p4p0-5p4p0-5p4p0-5p4p0-5p4p0-0----------------------
|-5p4p0-5p4p0-5p4p0-5p4p0-5p4p0-0-------------pfbr3----

|------------------------------------------------------
|------------------------------------------------------
|------------------------------------------------------
|-5p4p0-5p4p0-5p4p0-5p4p0-5p4p0-0----------------------
|-5p4p0-5p4p0-5p4p0-5p4p0-5p4p0-0----------------------
|-5p4p0-5p4p0-5p4p0-5p4p0-5p4p0-0-------------/12~~~\--

|------------------------------------------------------
|------------------------------------------------------
|-----------------------------------5/7-X-5-5----------
|-5p4p0-5p4p0-5p4p0-5p4p0-5p4p0-0---5/7-X-5-5-5-5------
|-5p4p0-5p4p0-5p4p0-5p4p0-5p4p0-0---3/5-X-3-3-5-5------
|-5p4p0-5p4p0-5p4p0-5p4p0-5p4p0-0-------------5-5------

|--------------------------------------------------------
|--------------------------------------------------------
|-----5/7-X-5-5---------5/7-X-5-5---------5/7------------
|-0---5/7-X-5-5-5-5-0---5/7-X-5-5-5-5-0---5/7-5p4p0-5p4p0
|-0---3/5-X-3-3-5-5-0---3/5-X-3-3-5-5-0---3/5-5p4p0-5p4p0
|-0-------------5-5-0-------------5-5-0-------5p4p0-5p4p0...

*1

|------------------------------------------------------
|------------------------------------------------------
|-2--2--5--5------5/7-X-5-5-----2--2--5--5------5/7-X--
|-2--2--5--5--0---5/7-X-5-5-5-5-2--2--5--5--0---5/7-X--
|-0--0--3--3--0---3/5-X-3-3-5-5-0--0--3--3--0---3/5-X--
|-------------0-------------5-5-------------0----------

|------------------------------------------------------
|------------------------------------------------------
|-5-5-----2--2--5--5------5/7-X-5-5-----2--2--5--------
|-5-5-5-5-2--2--5--5--0---5/7-X-5-5-5-5-2--2--5--5-----
|-3-3-5-5-0--0--3--3--0---3/5-X-3-3-5-5-0--0--3--5-----
|-----5-5-------------0-------------5-5----------5-----

*2 (chorus)

|------------------------------------------------------
|-3-------0---------------------------------------------
|-2---5---0-----7---9---11--14-14-----------------------
|-0---5---5---X-X-X-X-X-X-X-X--X------------------------
|-0---3---5---X-5-X-7-X-9-X-12-12-----------------------
|-0-------5---X---X---X---X-----------------------------

*3 (2nd verse)

|------------------------------------------------------
|------------------------------------------------------
|-2--2--5--5--X-7-X-5-X-7-X-5-X------2--2--5-----------
|-2--2--5--5--X-7-X-5-X-7-X-5-X-5-5--2--2--5--5--X-4---
|-0--0--3--3--X-5-X-3-X-5-X-3-X-5-5--0--0--3--5--X-4---
|-------------X---X---X---X---X-5-5-----------5--X-4---

|-------------------------------------------------------
|-------------------------------------------------------
|----------------------2--2--5--5--X-7-X-5-X-7-X-5-X----
|-X-5-X-7-X-9-X-10-10--2--2--5--5--X-7-X-5-X-7-X-5-X-5-5
|-X-5-X-7-X-9-X-10-10--0--0--3--3--X-5-X-3-X-5-X-3-X-5-5
|-X-5-X-7-X-9-X-10-10--------------X---X---X---X---X-5-5

|------------------------------------------------------
|------------------------------------------------------
|-2--2--5----------------------------------------------
|-2--2--5--5-------------------------------------------
|-0--0--3--5-------------------------------------------
|----------5-------------------------------------------

repeat *2

|-----------------------            -------------------
|-X-7-X-5-X-7-X-5-X-----            -----4-4-----------
|-X-7-X-5-X-7-X-5-X-5-5-            -4-4-4-4-----------
|-X-5-X-3-X-5-X-3-X-5-5-            -4-4-2-2-----------
|-X---X---X---X---X-5-5-            -4-4---------------
                       ^repeat until

*4

|------------------------------------------------------
|------------------------------------------------------
|-------------4-4--------------------------------------
|-0-0-5-5-4-4-4-4--------------------------------------
|-0-0-5-5-4-4-2-2--------------------------------------
|-0-0-5-5-4-4----...-----------------------------------

then cracendo (sp I'm sure) a-la-Rocket

and back to *1 and intro with a few variations I didn't tab.
            
Submit corrections

comments powered by Disqus
↑ Back to top | Smashing Pumpkins Tabs for Jelly Belly. Lyrics for acoustic guitar and electric guitar. Tablatures and chords are parodies/interpretations of the original songs. You may use it for private study, scholarship, research or language learning purposes only