» » »

Jackie Blue Tabs (ver.1)

Artists:  A B C D E F G H I J K L M N O P Q R S T U V W X Y Z # 

Jackie Blue Tabs (ver.1)

Smashing Pumpkins
Rating:
0/5 (0 votes)

Hard to play? Try these video lessons and learn fast.
                "Jackie Blue (Ozark Mountain Daredevils cover)- Smashing Pumpkins

Tuned to Eb

Intro

G1

|---------0--------------------0-------------------------------------|
|---------0----2---------------0----2--------------------------------|
|-4-7-----1----2-------4-7-----1----2--------------------------------|
|-4-7--2--2----2-------4-7--2--2----2--------------------------------|
|-2-5--2--2----0-------2-5--2--2----0--------------------------------|
|------0--0-----------------0--0------...----------------------------|
                      ^repeat

G2

|------12--10---------------------------------------------------|
|-------------12-10---------------------------------------------|
|-------------------12--11-9--7-9--7----------------------------|
|------------------------------------5-7---5hbr-----------------|
|-----------------------------------------------5-7-------------|
|---------------------------------------------------------------|


*1

|---------0--------------------0-------------------------------------|
|---------0----2---------------0----2--------------------------------|
|-4-7-----1----2-------4-7-----1----2--------------------------------|
|-4-7--2--2----2-------4-7--2--2----2--------------------------------|
|-2-5--2--2----0-------2-5--2--2----0--------------------------------|
|------0--0-----------------0--0------...----------------------------|
                      ^repeat
G2 fill
|----------------7-5-4------------------------------------------|
|---------------------------------------------------------------|
|---------------------------------------------------------------|
|---------------------------------------------------------------|
|---------------------------------------------------------------|
|---------------------------------------------------------------|

*2

|-----|-----------------------------------|---------------------------|
|-----|-----------------------------------|---------------------------|
|-4-7-|---5-6--5-6-5----5-6--5-6-5-8----6-|-4-7-----------------------|
|-4-7-|6--5-6--5-6-5-6--5-6--5-6-5-8----6-|-4-7-----------------------|
|-2-5-|6--3-4--3-4-3-6--3-4--3-4-3-6----4-|-2-5-----------------------|
|-----|4-------------4--------------------|---------------------------|
                                         ^repeat

*3 solo/jam part

|---------------------------------------------------------------|
|-------------------------3-------------------------3-----------|
|------------4-2--2--2--2-2------------4-2--2--2--2-2-----------|
|-2--2--2--2-4-2--2--2--2-0-2--2--2--2-4-2--2--2--2-0-----------|
|-2--2--2--2-2-0--0--0--0-0-2--2--2--2-2-0--0--0--0-0-----------|
|-0--0--0--0----------------0--0--0--0--------------------------|
                           ^repeat
"            
Hard to play? Try these video lessons and learn fast. | Correct




comments powered by Disqus
↑ Back to top | Tablatures and chords are parodies/interpretations of the original songs. You may use it for private study, scholarship, research or language learning purposes only