» » »

Smashing Pumpkins, I Of The Mourning Bass tabs (ver.1)

Artists:  A B C D E F G H I J K L M N O P Q R S T U V W X Y Z # 

I Of The Mourning Bass tabs (ver.1)

Smashing Pumpkins Tabs
 Rating:
4/5 (4 votes)
I Of The Mourning lessons Tabs too difficult? Try these video lessons and learn fast
1
                Tuning: E A D G


Intro
G -------------------------------
D -------------------------------
A 5-5-5-5-5-5-5-5-8-8-8-8-8-8-8-8
E -------------------------------

Verse 1
G --------------------------------------------------------------------
D --------------------------------------------------10-10-10----------
A 10--10-10--10-10-10-10--10-10\-13-/8-8-8-8--8-8-8----------8-8-8-8-8
E --------------------------------------------------------------------

  --------------------------------------------------------------------
  --------------------------------------------------10-10-10----------
  10--10-10--10-10-10-10--10-10\-13-/8-8-8-8--8-8-8----------8-8-8-8-8
  --------------------------------------------------------------------

  --------------------------------------------------
  --------------------------------------------------
  10--10-10--10-10-10-10--10-10\-13-/8-8-8-8--8-8-8-
  --------------------------------------------------

  -----------------------------------------------------
  -----------------------------------------------------
  10--10-10--10-10-10-10--10-10\-13-/8-8-8-8-8-8-8-8--7
  -----------------------------------------------------

Chorus
G -------------------------------------------
D -------------------------------------------
A -------------------------------------------
E 5-5-5-5-5--1-1-1-1-1--0-0-0-0-0-0-0-0-0-0-0

  -------------------------------------------
  -------------------------------------------
  -----------8-8-8-8-8--7-7-7-7-7-7-7-7-7-7-7
  5-5-5-5-5----------------------------------

  -------------------------------------------
  -------------------------------------------
  -----------8-8-8-8-8--7-7-7-7-7-7-7-7-7-7-7
  5-5-5-5-5----------------------------------

 
  ------------------------------------------
  ------------------------------------------
  ------------3---------------3---5---8-----
  1-------5-------1-------5---------------5-

Solo
G ----------------------------------------------------------
D ---------------9-9-9-----------7--7-7--7-7-7-7--7-7--7-5-5
A 7-7-7-7--7-7-7-------7-7-7-7-7----------------------------
E ----------------------------------------------------------

  --------------------------------------------
  ---------------9-9-9-----------7--7-7--7-7-7
  7-7-7-7--7-7-7-------7-7-7-7-7--------------
  --------------------------------------------

  --------------------------------------------
  --------------------------------------------
  --------------------------------------------
  1--1-1--1-1-1-1--1-1--1-1-1-1--5--5-5--5-5-5

  --------------------------------------------
  --------------------------------------------
  3--3-3--3-3-3--5--5-5--5-5-5--8--8-8-8-8-8-8
  --------------------------------------------

Verse 2
G --------------------------------------------------------------------
D --------------------------------------------------10-10-10----------
A 10--10-10--10-10-10-10--10-10\-13-/8-8-8-8--8-8-8----------8-8-8-8-8
E --------------------------------------------------------------------

  --------------------------------------------------
  --------------------------------------------------
  10--10-10--10-10-10-10--10-10\-13-/8-8-8-8--8-8-8-
  --------------------------------------------------

  ----------------------------------------------------------------------
  --------------------------------------------------10-10-10-------10-10
  10--10-10--10-10-10-10--10-10\-13-/8-8-8-8--8-8-8----------8-8-8------
  ----------------------------------------------------------------------

  -----------------------------------------------------
  -----------------------------------------------------
  10--10-10--10-10-10-10--10-10\-13-/8-8-8-8-8-8-8-8--7
  -----------------------------------------------------

Then play the chorus riff, then go into the following


G ---------------------------------------------------------------
D ---------------------------------------------------------------
A 8-8-8-8-8-8-8-8-8-8-8-8-8-8-8-8-0-0-0-0-0-0-0-0-0-0-0-0-0-0-0-0
E ---------------------------------------------------------------


  -------------------------------------------------9--7---------
  -------------------------------------------------------10--9--
  8-8-8-8-8-8-8-8-8-8-8-8-8-8-8-8-0-0-0-0-0-0-0-0---------------
  --------------------------------------------------------------


  --------------------------------------------------------
  --------------------------------------------------------
  8-8-8-8-8-8-8-8-8-8-8-8-8-8-8-8-------------------------
  --------------------------------5--5-5--5-5--8--8-8--8-8


G ------------------------------------------------
D ------------------------------------------------
A -----------------------------------------------5
E 1--1-1--1-1-1-1--1-1--1-1-1--5--5-5--5-5-5/-1---

  ------------------------------------------------
  ------------------------------------------------
  -----------------------------------------------5
  1--1-1--1-1-1-1--1-1--1-1-1--5--5-5--5-5-5/-1---

  -----------------------------------------------------
  -----------------------------------------------------
  -----------------------------------------------------
  1--1-1--1-1-1-1--1-1--1-1-1--5--5-5--5-5--8--8-8--8-8

Outro (play until the end)
G -----------------------------------------------------------------
D -----------------------------------------------------------------
A 5-5-5-5-5-5-5-5--8-8-8-8-8-8-8-8---------------------------------
E ---------------------------------5-5-5-5-5-5-5-5--8-8-8-8-8-8-8-8
            
Submit corrections

comments powered by Disqus
↑ Back to top | Smashing Pumpkins Bass for I Of The Mourning. Lyrics for acoustic guitar and electric guitar. 1 Tablatures and chords are parodies/interpretations of the original songs. You may use it for private study, scholarship, research or language learning purposes only