» » »

Infinite Sadness Tabs (ver.1)

Artists:  A B C D E F G H I J K L M N O P Q R S T U V W X Y Z # 

Infinite Sadness Tabs (ver.1)

Smashing Pumpkins
Rating:
0/5 (0 votes)

Hard to play? Try these video lessons and learn fast.
                Tuning: standard (E A D B G e)


Intro:
-|-0-0-----3---3-------2-----------0-0-----3---3-------2-----2--------------|-
-|-1-0---0-3---3-------3-----------1-0---0-3---3-------3-3-3-3-3-3----------|-
-|-0-0-0-0-0---0---0---2-----------0-0-0-0-0---0-0-0---2-2-2-2-2-2----------|-
-|-2-2-2-2-0-0-0---0-0-0-----------2-2-2-2-0-0-0-0-0-0-0-0-0-0-0-0----------|-
-|-3-3-3-3-2-2-----2-2-------------3-3-3-3-2-2---2-2-2----------------------|-
-|---------3-3-----------------------------3-3------------------------------|-

-|-0-0-----3---3-------2-----2-----0-0-----3---3-------2-----2---0-0-----3--|-
-|-1-0---0-3---3-------3-3-3-3-3-3-1-0---0-3---3-------3-3-3-3-3-1-0---0-3--|-
-|-0-0-0-0-0---0-0-0---2-2-2-2-2-2-0-0-0-0-0---0-0-0---2-2-2-2-2-0-0-0-0-0--|-
-|-2-2-2-2-0-0-0-0-0-0-0-0-0-0-0-0-2-2-2-2-0-0-0-0-0-0-0-0-0-0-0-2-2-2-2-0--|-
-|-3-3-3-3-2-2---2-2-2-------------3-3-3-3-2-2---2-2-2-----------3-3-3-3-2--|-
-|---------3-3-----------------------------3-3---------------------------3--|-

Verse: there isn't here guitar but this sound really good
-|-----3---3---3-------0---0---0--------3---3---3-------0---0---0-----------|-
-|-----3---3---3-------3---3---3--------3---3---3-------3---3---3-----------|-
-|-0---0---0-0-0-0-2---2---2-2-2-2--0---0---0-0-0-0-2---2---2-2-2-2---------|-
-|-2---2-----2---2-0---0-----0---0--2---2-----2---2-0---0-----0---0---------|-
-|-2---2---------2-0---0---------0--2---2---------2-0---0---------0---------|-
-|-0---0-----------2---2------------0---0-----------2---2-------------------|-

Chorus:
-|-0-0-----3---3-------2-----2-----0-0-----3---3-------2-----2--------------|-
-|-1-0---0-3---3-------3-3-3-3-3-3-1-0---0-3---3-------3-3-3-3-3-3----------|-
-|-0-0-0-0-0---0-0-0---2-2-2-2-2-2-0-0-0-0-0---0-0-0---2-2-2-2-2-2----------|-
-|-2-2-2-2-0-0-0-0-0-0-0-0-0-0-0-0-2-2-2-2-0-0-0-0-0-0-0-0-0-0-0-0----------|-
-|-3-3-3-3-2-2---2-2-2-------------3-3-3-3-2-2---2-2-2----------------------|-
-|---------3-3-----------------------------3-3------------------------------|-

-|-0-0-----3---3-------2-----2-----0-0-----3--------------------------------|-
-|-1-0---0-3---3-------3-3-3-3-3-3-1-0---0-3--------------------------------|-
-|-0-0-0-0-0---0-0-0---2-2-2-2-2-2-0-0-0-0-0--------------------------------|-
-|-2-2-2-2-0-0-0-0-0-0-0-0-0-0-0-0-2-2-2-2-0--------------------------------|-
-|-3-3-3-3-2-2---2-2-2-------------3-3-3-3-2--------------------------------|-
-|---------3-3-----------------------------3--------------------------------|-

Real verse:
-|-3-|-
-|-3-|-
-|-0-|- stum only once
-|-2-|-
-|-2-|-
-|-0-|-


Song structure:

Intro, then repeat verse and chorus 'till the end
            
Hard to play? Try these video lessons and learn fast. | Correct




comments powered by Disqus
↑ Back to top | Tablatures and chords are parodies/interpretations of the original songs. You may use it for private study, scholarship, research or language learning purposes only