» » »

Smashing Pumpkins, I Am One Tabs (ver.1)

Artists:  A B C D E F G H I J K L M N O P Q R S T U V W X Y Z # 

I Am One Tabs (ver.1)

Smashing Pumpkins Tabs
 Rating:
4/5 (4 votes)
I Am One lessons Tabs too difficult? Try these video lessons and learn fast
1
                I Am One  -- Smashing Pumpkins (Corgan/Iha)
- -- ---

This is the best I can do with this song.  I only have an acoustic guitar, so
I can't tab out guitar solos very well.  Hope you like it.

4 bar drum intro

4 bars of bass: (repeat 2x)
-------------------------------------------------------
-------------------------------------------------------
-------------------------------------------------------
--2--0-0-2--0-2--0-0-0-2--0-2--0-0-2--0-2--0-0-0-2--0--

Guitar intro:                                    pick slide
--------------------0-----------------------0--------
--------0---------0-------------0---------0----------
------3---------3-------------3---------3------------
----4---------4-------------4---------4----------x\--
--4---------2-------------4---------2------------x\--
--2---------0-------------2---------0------------x\--


Main rhythm guitar part (verse):

|Billy (2x)
|----------------------------------------------------------------
|--11--9-9-11--9-11--9-9-9-14-14--11--9-9-11--9-11--9-9-9-14-16-- ______<    FAX: 514.937.7451   Fido: 1:167/136   FrancoMedia 101:161/0
     /
            
Submit corrections

comments powered by Disqus
↑ Back to top | Smashing Pumpkins Tabs for I Am One. Lyrics for acoustic guitar and electric guitar. 1 Tablatures and chords are parodies/interpretations of the original songs. You may use it for private study, scholarship, research or language learning purposes only