» » »

Smashing Pumpkins, Hummer Tabs (ver.2)

Artists:  A B C D E F G H I J K L M N O P Q R S T U V W X Y Z # 

Hummer Tabs (ver.2)

Smashing Pumpkins Tabs
 Rating:
4/5 (4 votes)
Hummer lessons Tabs too difficult? Try these video lessons and learn fast
1
                how bout this in stead for "Hummer" Track No. 4 on the dream?
Drop D tuning
First Riff
------------------------------------------------------
7-8-7---------------7-8-7---7-8-----------------------
------8-7-------7-7-------8---------------------------
----------10-10---------------------------------------
------------------------------------------------------
------------------------------------------------------
Second (less distorted) riff

-------------------------------------------------------------
-------------------------------------------------------12----
11/\11---11~~~---11/\11---12~~~-11/\11---11~--11/\11---12----
-------------------------------------------------------9-----
9-/\9----9~~~~---9-/\9----10~~~-9-/\9----9~~--9-/\9----10----
-------0----------------0--------------0------------0--------

solo then
verse:
--0----0----|--0---0---|---
--3----3----|--3---1---|---
--2----2----|--0---0---|---
------------|----------|---
------------|----------|---
------------|----------|---

next part
--------------------------------------------------------
--------------------------------------------------------
--------------------------------------------------------
2-2-2-2-2-5-5-5-0/7-7-7--5-5-5--2-2-2--7-7--------------
2-2-2-2-2-5-5-5-0/7-7-7--5-5-5--2-2-2--7-7--------------
2-2-2-2-2-5-5-5-0/7-7-7--5-5-5--2-2-2--7-7--------------
 verse again but in the last measure, the last time you play it, 
play(distorted):

---------------
---------------
---------------
2/~10-10-10----
2/~10-10-10----
2/~10-10-10---- 
then

-----------------------------------------------------
-----------------------------------------------------
-----------------------------------------------------
0-0-0-0-0-2-2-10-10-10-10-10-0-0-0-2-2-2-5-5-5-5-----
0-0-0-0-0-2-2-10-10-10-10-10-0-0-0-2-2-2-5-5-5-5-----
0-0-0-0-0-2-2-10-10-10-10-10-0-0-0-2-2-2-5-5-5-5-----
play this^^^ twice then


-----------------------------------------------------
-----------------------------------------------------
11-12-12-11-12-11-12-12-7-7-7-7-7-7------------------
-----------------------------------------------------
9--10-10-9--10-9--10-10-5-5-5-5-5-5------------------
-----------------------------------------------------
three times

solo:

-----------------------------------------------------
-----------------------------------------------------
-----------------------------------------------------
7/~\7-5--4/\4-------5-7---7/-7-5--7--7/\7---5-4------
---------------5/~7-----5------------------------5---
-----------------------------------------------------

-----------------------------------------------------
----------------8-7----------------------------------
------------7------9-7--7-----9////~~~~~```------<--Slow bend
----5---7-9------------------------------------------
5-7-------------------9------------------------------
-----------------------------------------------------

i dont know this next part but i think it goes D-C-G
but it doesnt sound quite right

later do the first soft riff again

then the next solo:

-----------------------------------------------------
------------------------------3---3-----3------------
2-2-2-2-2-2-2/6-6-6-6-6-6-6\0---0---0-0---0---0-----
--------------------------------------------4--------
-----------------------------------------------------

more later :)
Striker X
            
Submit corrections

comments powered by Disqus
↑ Back to top | Smashing Pumpkins Tabs for Hummer. Lyrics for acoustic guitar and electric guitar. 1 Tablatures and chords are parodies/interpretations of the original songs. You may use it for private study, scholarship, research or language learning purposes only