» » »

Here Is No Why Tabs (ver.1)

Artists:  A B C D E F G H I J K L M N O P Q R S T U V W X Y Z # 

Here Is No Why Tabs (ver.1)

Smashing Pumpkins
Rating:
0/5 (0 votes)

Hard to play? Try these video lessons and learn fast.
                Allright, here's what I make of the *Solo* of "Here is no why" 
of the Smashing Pumpkins.

As you already know, you have to tune down your guitar half a step.
Eb Bb Gb Dg Ab Eb.

Distortion & Phasing!

b=bend		/=slide up
h=hammer on		\=slide down
p=pull off


e|---------------------------------|-12--------------------------------
B|-15b17------------9h10-----12b14-|-----10--9--9h10p9------9----------
G|--------13\9--11--------9--------|--------------------11-----11------
D|---------------------------------|-----------------------------------
A|---------------------------------|-----------------------------------
E|---------------------------------|-----------------------------------


e|---------------------------------|-15b16--12h14----------------------
B|-------------12b14---------------|---------------12-12h14------------
G|-9--11p9--9----------------------|-------------------------9-9h11----
D|---------------------------------|-----------------------------------
A|---------------------------------|-----------------------------------
E|---------------------------------|-----------------------------------


e|---------------------------------|-----------------------------------
B|-10--10h12p10-9-10-9-10h12-10-9--|-----------------------------------
G|---------------------------------|-11h13--11h13--11\9--11p9--9/13----
D|---------------------------------|-----------------------------------
A|---------------------------------|-----------------------------------
E|---------------------------------|-----------------------------------


e|---------------------------------|-(*)-----------------------20b21~~17
B|---------------9--10--12--12/17--|-17--20b21--17--20b21--17----------
G|-11--9--9--11--------------------|-----------------------------------
D|---------------------------------|-----------------------------------
A|---------------------------------|-----------------------------------
E|--------------->---------------------------
                (-not sure about this part-)

(*)= repeat this note a couple of times.

This should be all, but I'm not sure about that last part though!
Please send me corrections on that last part!

---------------------------------1077715649209--
            
Hard to play? Try these video lessons and learn fast. | Correct




comments powered by Disqus
↑ Back to top | Tablatures and chords are parodies/interpretations of the original songs. You may use it for private study, scholarship, research or language learning purposes only