» » »

Hello Kitty Kat Tabs (ver.1)

Artists:  A B C D E F G H I J K L M N O P Q R S T U V W X Y Z # 

Hello Kitty Kat Tabs (ver.1)

Smashing Pumpkins
Rating:
0/5 (0 votes)

Hard to play? Try these video lessons and learn fast.
                Comment: Well, this is my second tab, First being Girl Named Sandoz.
         This tab is pretty complete, minus the second solo.  If anyone
         can figure it out, PLEASE mail me.  Anyways hope you like it.
         If you do use this tab please mail me with comments as it took
         me a while to figure out and I would like feedback, good or bad.



[RIFF 1]: Heavy Distortion
||-------------------------------------------------------------------------|
||-------------------------------------------------------------------------|
||-------------------------------------------------------------------------|
||-4--4-4--4-----4-4--4-4-4--4-----4-4-4--4-4--4-----4-4--4-4-4--4---------|
||-4--4-4--4-----4-4--4-4-4--4-----4-4-4--4-4--4-----4-4--4-4-4--4---------|
||-2--2-2--0h2---2-2--2-2-2--0h2---2-2-2--2-2--0h2---2-2--2-2-2--0h2-------|

A little while after [RIFF 1], after the drums come in.  Play this little
build up.

||-------------------------------------------------------------------------|
||-------------------------------------------------------------------------|
||-------------------------------------------------------------------------|
||-------------------------------------------------------------------------|
||--13---13-13---13-13--13-13-13-13-13-13---14---14-14---14-14--14-14-14-14|
||-------------------------------------------------------------------------|

||-------------------------------------------------------------------------|
||-------------------------------------------------------------------------|
||-------------------------------------------------------------------------|
||-------------------------------------------------------------------------|
||-14-14----16---16-16---16-16--16-16-16-16-16-16--[pick scr*pe]-----------|
||-------------------------------------------------------------------------|

Then Just:
[RIFF 1]
Say hello, before you say goodbye
I should go, before you make me cry
She wants to bleed, every drop inside of me
But I aim to please the little girl inside of me, too

[RIFF 2]
||-------------------------------------|
||-------------------------------------|
||-------------------------------------|
||--6-------6---6--2---2-2-2-2-2-2-----|
||--6-------6---6--2---2-2-2-2-2-2-----|
||--4-------4---4--0---0-0-0-0-0-0-----|
Yeah, Yeah
You know I hate to say
Oh no, I always stay
I don't wanna be like the others please
Who is sorry now?
Who is sorry now?
If I show you how, we'll let you down.

[Small Solo]: you figure out the rhythm, the h's and p's are done FAST.
              I'm pretty sure this is right.  It sounds right anyways :)
||-------------------------------------------------------------------------|
||-------------------------------------------------------------------------|
||--18~------18h19p18h19~---18h19p18-21~---18h19p18h19~---18h19p18-18~-----|
||-------------------------------------------------------------------------|
||-------------------------------------------------------------------------|
||-------------------------------------------------------------------------|

||-------------------------------------------------------------------------|
||-------------------------------------------------------------------------|
||----18h21~~-------18h19p18h19p18---21--18--19~---------------------------|
||-------------------------------------------------------------------------|
||-------------------------------------------------------------------------|
||-------------------------------------------------------------------------|


[RIFF 1b]
||---------------------|
||---------------------|
||---------------------|
||-9----9-9-9-9-9-2----|
||-9----9-9-9-9-9-2----|
||-7----7-7-7-7-7-0----|

[RIFF 1]: But at the end of each line add [RIFF 1b]

[RIFF 1]                             [RIFF1b]
Slit my wrists and die for. . . her.
Love to love to love what you adore
I can give you anything, but pleasing you,
Be your everything... I lose


[RIFF 2]
Yeah, Yeah
You know I hate to say
Oh no, I always stay
I don't wanna be like the others please
Who is sorry now?
If I show you how,
Will you let me down?
Will you let me down?
Who is sorry now?
Who is sorry NOW!?

[RIFF 3]:This is played a couple of times then under the singing.
||-------------------------------------------------------------------------|
||-------------------------------------------------------------------------|
||-------------------------------------------------------------------------|
||11--1111-111111-2--2-2-2-2-2--11--1111-111111-2--2-2-2-7-9---------------|
||11--1111-111111-2--2-2-2-2-2--11--1111-111111-2--2-2-2-7-9---------------|
||-9---9-9--9-9-9-0--0-0-0-0-0---9---9-9--9-9-9-0--0-0-0-5-7---------------|

My love is weakness
                                 My love is oh so wrong
My love is sadness
                                 My love is oh so strong
I'll be there when you shout
                                 My love is f**king strong
I'll be with you all night long

[Just before the Solo, at the end of last line above, play this for the end]
||----------------------|
||----------------------|
||----------------------|
||11--1111-111111-12----|
||11--1111-111111-12----|
||-9---9-9--9-9-9-10----|

                       
[guitar solo]: Yah right, YOU figure this out.

Ooooh ooooh oooooh

[RIFF 2]: Solo is played through this into the outro.
Yeah, Yeah
You know I hate to say
Oh no, I always stay
I don't wanna be like the others please
Who is sorry now?
Who is sorry now?
Who is sorry now?
Girl, I'll show you how,
We'll let you down.
We let you down.
Please let me down.
Please let me doooown.

[outro]
            
Hard to play? Try these video lessons and learn fast. | Correct




comments powered by Disqus
↑ Back to top | Tablatures and chords are parodies/interpretations of the original songs. You may use it for private study, scholarship, research or language learning purposes only