>
 >
Hello Kitty Kat

Hello Kitty Kat Bass Tabs

Smashing Pumpkins - Hello Kitty Kat chords, tabs, tablatures, lyrics

Guitar lessons | Add/correct | Request | Top 50 tabs Artists:  A B C D E F G H I J K L M N O P Q R S T U V W X Y Z 0-9

Hello Kitty Kat Bass Tabs – Smashing Pumpkins

CD, Sheet music, Poster

Do you like Hello Kitty Kat? Share with your friends now
Bass TabsBass Tabs v2ChordsTabsTabs v2Tabs v3
================================================================================
                       S M A S H I N G   P U M P K I N S

                                       -

                         H E L L O   K I T T Y   K A T
================================================================================


                                PISCES ISCARIOT
                           (c) Virgin Records (1994)


                                Standard  Tuning
                                     E A D G

                                 Tempo =  114 BPM
                               Time Signature = 4/4



                          -----------------------------

                                 PADDY MCMULLAN

                                   Version 1.0
                                2nd January 2011
                             -----------------------

                             Tablature Symbols Used:


 p         -  Pull-Off
 h         -  Hammer-On
 (/)       -  Legato Slide (Blank space indicates length of slide)
 \         -  Slide Down to/Down From (Blank space indicates length of slide)
 /         -  Slide Up To/Up From (Blank space indicates length of slide)
 ( )       -  Ghost Note/Tied Note/Implied Note
 REST      -  Rest and sustain rest for duration of blank space
 |__[1,2]  -  Alternative Endings
 |_3_|     -  Triplet Notes




================================================================================
Rest for 1 bar
================================================================================

================================================================================
Part 1:                                                   [ Time 00:00 - 00:52 ]
================================================================================


||------------------------------|-------------------------------| |
||------------------------------|-------------------------------|*|
||------------------------------|-------------------------------|*| x 4
||--2--2-2-0h2--2--2-2-2-0-2--2-|--2--2-2-0h2--2--2-2-2-0-2-2-2-| |



================================================================================
Part 2:                                                   [ Time 00:52 - 02:12 ]
================================================================================


||----------------------------|-----------------------------|
||----------------------------|-----------------------------|
||----------------------------|-----------------------------|
||--4--4-4-4--4-0---0--0--0-0-|--4--4-4-4--4-0--0-0--0--0-0-|


|----------------------------|----------------------------|
|----------------------------|----------------------------|
|----------------------------|----------------------------|
|--4--4-4-4--4-0---0--0--0-0-|--4--4-4-4--4-0---0--7-- \--|


|----------------------------|----------------------------|
|----------------------------|----------------------------|
|----------------------------|----------------------------|
|--4--4-4-4--4-0---0--0--0-0-|--4--4-4-4--4-0---0--7-- \--|


|----------------------------|-----------------------------|
|----------------------------|-----------------------------|
|----------------------------|-----------------------------|
|--4--4-4-4--4-0---0--0--0-0-|--4--4-4-4--4-0--0-0--0--0-0-|


|----------------------------|----------------------------||
|----------------------------|----------------------------||
|----------------------------|----------------------------||
|--4--4-4-4--4-0---0--0--0-0-|--4--4-4-4--4-0---0--0--0-0-||



================================================================================
Part 3:                                                   [ Time 01:12 - 01:49 ]
================================================================================


Repeat Part 1 three times


||-------------------------------|---------------------| |
||-------------------------------|---------------------|*|
||-------------------------------|---------------------|*| x 3
||--2--2-2-0h2--2--2-2-2-0-2--2 /|--7------0------0----| |


|------------------------------|-------------------------------||
|------------------------------|-------------------------------||
|------------------------------|-------------------------------||
|--2--2-2-0h2--2--2-2-2-0-2--2-|--2--2-2-0h2--2--2-2-2-0-2-2-2-||



================================================================================
Part 4:                                                   [ Time 01:49 - 02:14 ]
================================================================================


This part is a slight variation of Part 2


||----------------------------|-----------------------------|
||----------------------------|-----------------------------|
||----------------------------|-----------------------------|
||--4--4-4-4--4-0---0--0--0-0-|--4--4-4-4--4-0--0-0--0--0-0-|


|----------------------------|----------------------------|
|----------------------------|----------------------------|
|----------------------------|----------------------------|
|--4--4-4-4--4-0---0--0--0-0-|--4--4-4-4--4-0---0--7-- \--|


|----------------------------|----------------------------|
|----------------------------|----------------------------|
|----------------------------|----------------------------|
|--4--4-4-4--4-0---0--0--0-0-|--4--4-4-4--4-0---0--7-- \--|


|----------------------------|-----------------------------|
|----------------------------|-----------------------------|
|----------------------------|-----------------------------|
|--4--4-4-4--4-0---0--0--0-0-|--4--4-4-4--4-0--0-0--0--0-0-|


|----------------------------|----------------------------|
|----------------------------|----------------------------|
|----------------------------|----------------------------|
|--4--4-4-4--4-0---0--0--0-0-|--4--4-4-4--4-0---0--0--0-0-|


|----------------------------|----------------------------||
|----------------------------|----------------------------||
|----------------------------|----------------------------||
|--4--4-4-4--4-0---0--0--0-0-|--4--4-4-4--4-0---0--7--7-7-||



================================================================================
Part 5:                                                   [ Time 02:14 - 02:40 ]
================================================================================


||-----------------------------|------------------------------||
||-----------------------------|------------------------------||
||-----------------------------|------------------------------||
||--(7/9)-9-9-9---0---0--0--0--|--(7/9)-9-9-9---0---0--0--0-0-||


| |-----------------------------|------------------------------| |
| |-----------------------------|------------------------------|*|
| |-----------------------------|------------------------------|*| x 4
| |--(7/9)-9-9-9---0---0--0--0--|--(7/9)-9-9-9---0---0--5--5-5-| |


|------------------------------|------------------------------|
|------------------------------|------------------------------|
|------------------------------|------------------------------|
|--(7/9)-9-9-9---0---0--5--5-5-|--(7/9)-9-9-9-9-9-10----------|


|----------------------||
|----------------------||
|----------------------||
|--(10)---------10\ ---||



================================================================================
Part 6:                                                   [ Time 02:40 - 03:21 ]
================================================================================


||-------------------------------| |
||-------------------------------|*|
||------------------------4--4-4-|*| x 8
||--(7 \ 4)--4--4-2---2-2--------| |


|-------------------------------|-------------------------------|
|-------------------------------|-------------------------------|
|------------------------2--2-2-|------------------------2--2-2-|
|--(5 \ 2)--2--2-0---0-0--------|--(5 \ 2)--2--2-0---0-0--------|


|-------------------------------|-------------------------------|
|-------------------------------|-------------------------------|
|------------------------2--2-2-|-------------------------------|
|--(5 \ 2)--2--2-0---0-0--------|--(5 \ 2)--2--2-0---0-0-0--0-0-|


|-------------------------------|-------------------------------|
|-------------------------------|-------------------------------|
|------------------------4--4-4-|------------------------4--4-4-|
|--(7 \ 4)--4--4-2---2-2--------|--(7 \ 4)--4--4-2---2-2--------|


|-------------------------------|----------------------------------||
|-------------------------------|----------------------------------||
|------------------------4--4-4-|----------------------------------||
|--(7 \ 4)--4--4-2---2-2--------|--(7 \ 4)--4--4-2-2-2-2-2-2-2-2-2-||



================================================================================
Part 7:                                                   [ Time 03:13 - 03:21 ]
================================================================================


||------------------------------|-------------------------------|
||------------------------------|-------------------------------|
||--4--4-4-4--4-4-4--4-4-4--4-4-|--6--6-6-6--6-6-6-6-6-6-6-6--6-|
||------------------------------|-------------------------------|


|-------------------------------|------------------------------------------||
|-------------------------------|------------------------------------------||
|--7--7-7-7--7-7-7-7-7-7-7--7-7-|--9-9-9-9-9-9-9-9-10-10-10-10-10-10-10-10-||
|-------------------------------|------------------------------------------||



================================================================================
Part 8:                                                   [ Time 03:21 - 03:49 ]
================================================================================


||----------------------------|-----------------------------|
||----------------------------|-----------------------------|
||----------------------------|-----------------------------|
||--4--4-4-4--4-0---0--0--0-0-|--4--4-4-4--4-0--0-0--0--0-0-|


|----------------------------|----------------------------|
|----------------------------|----------------------------|
|----------------------------|----------------------------|
|--4--4-4-4--4-0---0--0--0-0-|--4--4-4-4--4-0---0--7-- \--|


|----------------------------|----------------------------|
|----------------------------|----------------------------|
|----------------------------|----------------------------|
|--4--4-4-4--4-0---0--0--0-0-|--4--4-4-4--4-0---0--7-- \--|


| |----------------------------|---------------------------| |
| |----------------------------|---------------------------|*|
| |----------------------------|---------------------------|*| x 3
| |--4--4-4-4--4-0---0--0--0-0-|--4--4-4-4--4-0---0--7--0--| |



================================================================================
Part 9:                                                   [ Time 03:49 - 04:32 ]
================================================================================


||------------------------------|-------------------------------| |
||------------------------------|-------------------------------|*|
||------------------------------|-------------------------------|*| x 3
||--2--2-2-0h2--2--2-2-2-0-2--2-|--2--2-2-0h2--2--2-2-2-0-2-2-2-| |


| |------------------------------|-----------------------------|
| |------------------------------|-----------------------------|
| |------------------------------|-----------------------------|
| |--2--2-2-0h2--2--2-2-2-0-2--2-|--2--2-2-0h2-2-2-0-0---0-0---|


|-------------------------------|--------------------------------| |
|-------------------------------|--------------------------------|*|
|-------------------------------|--------------------------------|*| x 2
|--2--2-2-0h-2--2--2-2-2-0-2--2-|--2--2-2-0h-2--2--2-2-2-0-2-2-2-| |


|------------------------------|-----------------------------|
|------------------------------|-----------------------------|
|------------------------------|-----------------------------|
|--2--2-2-0h2--2--2-2-2-0-2--2-|--2--2-2-0h2-2-2-0-0---0-0---|


|-------------R--     --||
|-------------E--     --||
|-------------S--     --||
|--0-0---0-2--T--     --||



================================================================================
End
================================================================================


Tab summary:        Part 1
                    Part 2
                    Part 3
                    Part 4
                    Part 5
                    Part 6
                    Part 7
                    Part 8
                    Part 9

                    END





Comments


Popular Smashing Pumpkins tabs & chords
Shame 1 Bass Tabs
Smiley Bass Tabs
Astral Planes 1 Tabs
Bodies 1 Tabs
Bury Me Tabs
Freak Intro Tabs
Rhinocerous Tabs
Speed Kills Tabs
Stand Inside Your Love 4 Tabs
Innosense Ukulele


Song lyrics



↑ Back to top | Tablatures and chords are parodies/interpretations of the original songs. You may use it for private study, scholarship, research or language learning purposes only
© 2014 AZChords.com Contact us | Privacy policy | DMCA | Add/correct tabs | Request tabs | Top 50 tabs