>
 >
Gossamer

Gossamer Guitar Tabs

Smashing Pumpkins - Gossamer chords, tabs, tablatures, lyrics

Guitar lessons | Add/correct | Request | Top 50 tabs Artists:  A B C D E F G H I J K L M N O P Q R S T U V W X Y Z 0-9

Gossamer Guitar Tabs – Smashing Pumpkins

CD, Sheet music, Poster

Do you like Gossamer? Share with your friends now
Tabs
Lyrics and Tab



Key - D minor

Tuning - Drop D, Half step down (Db Ab Db Gb Bb Eb)


e--------------------------------|
b--9-10--------------------------|
g-------9-10-9h10p9\7-9-7h9p7\5--|
d--------------------------------|
a--------------------------------|
E-0------------------------------|


e----------|
b--9-10----|
g-------9--|  Let ring...
d----------|
a----------|
E-0--------|


e-------------------------------------------|
b-------------------------------------------|
g---------------------------------------12--|
d---------------------------10-12-14-15-----|
a-----------------7-8-10-12-----------------|
E-0-2-3-5-7-10-12---------------------------|


e----------------------------------------------------------------|
b----------------------------------------------------------------|
g------14~-12h14p12\10-12~-10h12p10\9-10~-9h10p9\7-9~-9p7\5h7----|
d----------------------------------------------------------------|
a----------------------------------------------------------------|
E-12/0--------------------------------------------------------0--|

e-------------------------------------------------------------|
b-13-12-13----------------------------------------------------|
g----------12--10~-9h10p9\7-9~-7h9p7\5-7~-5h7p5\2-5~---5/7----|
d----------------------------------------------------7--------|
a-------------------------------------------------------------|
E----------------------------------------------------------0--|


 Dmin  C    G    F  Dsus2 Amin  A

e-1-------------------0------------|
b-3----1----3----1----3----1-------|
g-2----0----4----2----2----2----2--|
d-0----2----5----3----0----2----2--|
a-0----3----5----3----0----0----0--|
E-0-------------------0------------|




Dmin              C

you will fly away again


    G   F

you will


Dsus2      A      G     F      Dsus2

straight into the heart of the sun


C          G      F        Amin     Dsus2

straight into the heart of everyone


Dmin                     C

you will break my heart against


   G   F

my will


Dsus2  A        G   F       Dsus2

    Of the dead end of your gun


C  G        F      Amin     Dsus2

Of the dead end of everyone


C                      G       Dmin

fly, fly away when you say you won't


C                   G              Dmin

you follow when you swear you just don't


e--------------|
b--------------|
g--------------|
d--------------|
a--------------|
E-3-2---(2)\5--|

  I can't rule you no more


  F    Am7 Dsus2

e-3----3----0--|
b-1----1----3--|
g-2----0----2--|
D-3----2----0--|
a(3)--(0)------|
E--------------|

**Play notes from the above chords**


F  Am7  Dsus2  F  Am7  Dsus2  F  Am7


Dsus2

go find you another sun


F                   Am7

go find you another sun to love


Dsus2                    F    Am7

go find you another sun


Dsus2

go find you another sun


F                   Am7        Dsus2

go find you another sun to gun down


F           Am7            Dsus2  F  Am7

go find you... another sun


          Dsus2            F  Am7

you don't want me anymore


          Dsus2            F  Am7

you don't love me anymore


   Dsus2

no more

**Solo**
Sounds like its in Amin


you will fly away again you will
you will fly away again you will
straight into the heart of the sun
you will break my heart against my will
you will break my heart against my will
of the dead end of your gun





Comments


Popular Smashing Pumpkins tabs & chords
Cupid De Locke Intro Bass Tabs
The Celestials Bass Tabs
Bullet With Butterfly Wings Tabs
Girl Named Sandoz Tabs
Marquis In Spades 2 Tabs
Nothing And Everything Tabs
Rhinoceros Tabs
Silverfuck 1 Tabs
We Only Come Out At Night Tabs
Fucky Fucky Ukulele


Song lyrics



↑ Back to top | Tablatures and chords are parodies/interpretations of the original songs. You may use it for private study, scholarship, research or language learning purposes only
© 2014 AZChords.com Contact us | Privacy policy | DMCA | Add/correct tabs | Request tabs | Top 50 tabs