>
 >
Glass And The Ghost Children

Glass And The Ghost Children Guitar Tabs

Smashing Pumpkins - Glass And The Ghost Children chords, tabs, tablatures, lyrics

Guitar lessons | Add/correct | Request | Top 50 tabs Artists:  A B C D E F G H I J K L M N O P Q R S T U V W X Y Z 0-9

Glass And The Ghost Children Guitar Tabs – Smashing Pumpkins

CD, Sheet music, Poster

Do you like Glass And The Ghost Children? Share with your friends now
Bass TabsChordsChords v2Chords v3TabsUkulele
Artist - Smashing Pumpkins
Song - Glass And The Ghost Children
Album - Machina/The Machines Of God

I would like to thank mr turnipsoup for the second movement part as the 
tab Le Deux Machina is exactly the same as the second movement

Tuning - 

Guitars 1 + 2 - Eb, Ab, Db, Gb, Bb, Eb
Guitar 3 - Db, Ab, Db, Gb, Bb, Eb

FIRST MOVEMENT

Intro

|-0-|---|----------0---------0---------0------------0---------0--------0---|
|---|-0-|----0-------0---------0---------0------------0---------0--------0-|
|---|---|-14----14-----14\12-----12\11-----11-11/12-----12\11-----9/11-----|
|---|---|------------------------------------------------------------------|
|---|---|------------------------------------------------------------------|
|---|---|------------------------------------------------------------------|

|------0---0-------0------------|18~~-----------|-17^-18-/18-/18-///18-|
|--------0-------0---0---0------|-----15~~-17~~-|----------------------|
|-11/9-------7/9-----9-------9^-|15~~-----------|----------------------|
|-------------------------------|-----12~~-14~~-|----------------------|
|-------------------------------|---------------|----------------------|
|-------------------------------|---------------|----------------------|

Verse
 Guitars 1 + 2
|-0-----0-------0-----0-----------0-|
|-0-----0-------0-----0-----------0-|
|-0-----0-------6-----6---7/6-----0-|
|-2---2-2---2---5-----5---5-5-------|
|-2---2-2---2---7-----7---7-7-------|
|-0---0-0---0---0---0-0-0-0-0---0---|

Chorus
 Guitars 1 + 2
|-----------------0-0-|
|-----------------0-0-|
|-----------------4-4-|
|-----------------5-5-|
|-----2---3-2-0---5-5-|
|-1---------------3-3-|

Solo
 Guitar 1
|-0-----0-------0-----0-----------0-|
|-0-----0-------0-----0-----------0-|
|-0-----0-------6-----6---7/6-----0-|
|-2---2-2---2---5-----5---5-5-------|
|-2---2-2---2---7-----7---7-7-------|
|-0---0-0---0---0---0-0-0-0-0---0---|
|Guitar 2
|------------------19-19-19------------------|-24~-22/21~~-22-21-19-17-19-|
|-18~~-17-17-17-17-//-//-//-17-17/10---8---5-|----------------------------|
|------//-//-//-//----------//-//------------|----------------------------|
|--------------------------------------------|----------------------------|
|--------------------------------------------|----------------------------|
|--------------------------------------------|----------------------------|
  W/Wah                                      | W/Harmoniser

Verse 2
 Guitar 2
|-------------------------0-----|-----------------------|
|-8~~---5~~---8~~---5~~-----3/5-|-8~~---5~~---8~~---5~~-|
|-------------------------------|-----------------------|
|-------------------------------|-----------------------|
|-------------------------------|-----------------------|
|-------------------------------|-----------------------|
                                | Play x 3
Guitars 1 + 2
|-----------------0-0-|
|-----------------0-0-|
|-----------------4-4-|
|-----------------5-5-|
|-----2---3-2-0---5-5-|
|-1---------------3-3-|

Outro

Guitar 1
|-0-----0-------0-----0-----------0-|
|-0-----0-------0-----0-----------0-|
|-0-----0-------6-----6---7/6-----0-|
|-2---2-2---2---5-----5---5-5-------|
|-2---2-2---2---7-----7---7-7-------|
|-0---0-0---0---0---0-0-0-0-0---0---|
|Guitar 2
|-------------------------------|
|-17~~-17~~-17~~-17---17^---17^-|
|-------------------------------|
|-------------------------------|
|-------------------------------|
|-------------------------------|
  W/Wah

SECOND MOVEMENT

Thanks again to mr turnipsoup for this, although this version is for 
two guitars both of them are tuned down a 1/2 step.
 
 Guitar 1
|-------------------------------------------------2-4-2-4-2-4-2-4-|
|-2-4-2-4-2-4-2-4-4-6-4-6-4-6-4-6-5-7-5-7-5-7-5-7-----------------|
|-----------------------------------------------------------------|
|-----------------------------------------------------------------|
|-----------------------------------------------------------------|
|-----------------------------------------------------------------|
|Guitar 2
|-----------------------------------------------------------------|
|-----------------------------------------------------------------|
|-----------------------------------------------------------------|
|---------3-------------------------------------------------------|
|-1-----------------------6---------------5---------------2-------|
|-----------------4---------------3---------------0---------------|

 Guitar 1
|-----------------------------------------------------------------|
|-2-4-2-4-2-4-2-4-4-6-4-6-4-6-4-6-5-7-5-7-5-7-5-7-7-9-7-9-7-9-7-9-|
|-----------------------------------------------------------------|
|-----------------------------------------------------------------|
|-----------------------------------------------------------------|
|-----------------------------------------------------------------|
|Guitar 2
|-----------------------------------------------------------------|
|-----------------------------------------------------------------|
|-----------------------------------------------------------------|
|---------3-------------------------------6-------7---------------|
|-1-----------------------6-------4-----------------------7-------|
|-----------------4-----------------------------------------------|

 Guitar 1
|-4-6-4-6-4-6-4-6-7-9-7-9-7-9-7-9-5-7-5-7-5-7-5-7-4-5-4-5-4-5-4-5-|
|-----------------------------------------------------------------|
|-----------------------------------------------------------------|
|-----------------------------------------------------------------|
|-----------------------------------------------------------------|
|-----------------------------------------------------------------|
|Guitar 2
|-----------------------------------------------------------------|
|-----------------------------------------------------------------|
|-----------------------------------------------------------------|
|-----------------------------------------------------------------|
|-6-----------------------5-------4---------------4---------------|
|---------6-------7-----------------------5---------------4-------|

 Guitar 1
|-2-4-2-4-2-4-2-4-0-2-0-2-0-2-0-2---------------------------------|
|---------------------------------4-5-4-5-4-5-4-5-4-5-4-5-4-5-4-5-|
|-----------------------------------------------------------------|
|-----------------------------------------------------------------|
|-----------------------------------------------------------------|
|-----------------------------------------------------------------|
|Guitar 2
|-----------------------------------------------------------------|
|-----------------------------------------------------------------|
|-------------------------1-------2-------------------------------|
|---------1-------------------------------2-----------------------|
|-----------------4-------------------------------4---------------|
|-4---------------------------------------------------------------|

Play the whole thing again, but on the second time the track 
speeds up and slows down.

THIRD MOVEMENT

Main Riff
 Guitar 3
|-0---0---0---0-0---0---0---0---0-0---0---0---0-|
|-3---3---3---3-3---0---0---0---0-0---0---0---0-|
|-2---2---2---2-2---0---0---0---0-0---2---2---2-|
|-0---0---0---0-0---2---2---2---2-2---0---0---0-|
|-0---0---0---0-0---2---2---2---2-2---0---0---0-|
|-0---0---0---0-0---2---2---2---2-2---0---0---0-|
|Guitar 1
|----------------0~~-----------------------0~~--|
|-------------7~~--------------------8~~--------|
|-------7~~--------------------7~~--------------|
|-0~~-------------------------------------------|
|------------------------7~~--------------------|
|-----------------------------------------------|

Outro
 Guitar 3
|-0---0---0---0-0---0---0---0---0-0---0---0---0-|-0---0---0---0-0-0~~-|
|-3---3---3---3-3---0---0---0---0-0---0---0---0-|-3---3---3---3-3-0~~-|
|-2---2---2---2-2---0---0---0---0-0---2---2---2-|-4---4---4---4-4-0~~-|
|-0---0---0---0-0---2---2---2---2-2---0---0---0-|-2---2---2---2-2-2~~-|
|-0---0---0---0-0---2---2---2---2-2---0---0---0-|-2---2---2---2-2-2~~-|
|-0---0---0---0-0---2---2---2---2-2---0---0---0-|-----------------2~~-|
|Guitar 1
|----------------0~~-----------------------0~~--|
|-------------7~~--------------------8~~--------|
|-------7~~--------------------7~~--------------|
|-0~~-------------------------------------------|
|------------------------7~~--------------------|
|-----------------------------------------------|
|Guitar2
|------------------------------------|--------------------|
|------------------------------------|--------------------|
|-11-11-12-11-9-11---11-11-12-11-9-7-|-11-11-12-11-9-11-9-|
|------------------------------------|--------------------|
|------------------------------------|--------------------|
|------------------------------------|--------------------|
  Play x 3                           |





Comments


Popular Smashing Pumpkins tabs & chords
Mouths Of Babes 2 Bass Tabs
Perfect 1 Chords
Soma Chords
The End Is The Begining Is The End Chords
Aeroplane Flies High 1 Tabs
Dross Tabs
Hummer Tabs
Landslid Tabs
Panopticon Intro Tabs
Soma 2 Tabs


Song lyrics



↑ Back to top | Tablatures and chords are parodies/interpretations of the original songs. You may use it for private study, scholarship, research or language learning purposes only
© 2014 AZChords.com Contact us | Privacy policy | DMCA | Add/correct tabs | Request tabs | Top 50 tabs