>
 >
Geek Usa

Geek Usa Bass Tabs

Smashing Pumpkins - Geek Usa chords, tabs, tablatures, lyrics

Guitar lessons | Add/correct | Request | Top 50 tabs Artists:  A B C D E F G H I J K L M N O P Q R S T U V W X Y Z 0-9

Geek Usa Bass Tabs – Smashing Pumpkins

CD, Sheet music, Poster

Do you like Geek Usa? Share with your friends now
Bass Tabs
-------------------------------------------------------------------------------
			     Geek USA - Smashing Pumpkins
-------------------------------------------------------------------------------


 Tuning:Drop D
 Intro x4(Come in at 0.08),Note:1's not 11's
G|---------------------|
D|---------------------|
A|-------/9---------4--|
D|1111111----1111111---|

 Verse
G|-------------------------------------------------------------|
D|-------------------------------------------------------------|
A|---4---------------4---------------4---------------4---------|
D|1-1--1-1-6h8-4--1-1--1-1-6h8-4--1-1--1-1-6h8-4--1-1--6-5-4~--|

 Pre-Chorus
G|---------------------------------------------------------------------------------|
D|---------------------------------------------------------------------------------|
A|---4----6------------------------------------------------------------------------|
D|1-1--1-1-------------------------------------------------------------------------|

 Chorus
G|---------------------------------------------------------------------------|
D|---------------------------------------------------------------------------|
A|-------------------------------4----6--------------------6666--------------|
D|44446666-11111111--44446666-1-1--1-1---44446666--44446666-----4444-66661~--|

 Intro x2
 Verse
G|-------------------------------------------------------------|
D|-------------------------------------------------------------|
A|---4---------------4---------------4---------------4---------|
D|1-1--1-1-6h8-4--1-1--1-1-6h8-4--1-1--1-1-6h8-4--1-1--6-5-4~--|
 x1
G|---------------------------------------------------------------------------|
D|---------------------------------------------------------------------------|
A|----------66666666------------66666666-----------66666666-----------44444--|
D|6666-8888-----------6666-8888----------6666-8888----------6666-8888--------|

 Pre-Chorus x1
 Chorus

 Breakdown x8(Start at 2.00)
G|--------------------------------------------------------------------------------|
D|--------------------------------------------------------------------------------|
A|-----4-6~-----------------------------------------------------------------------|
D|6h8-----------------------------------------------------------------------------|

 Bridge x4(1's not 11's)
G|---------------------------------|
D|---------------------------------|
A|---------------------------------|
D|1-1-1-1-3-3-3-3-6-6-6-6-6-6-6-6--|

G|------------------------------------------------------------------|
D|------------------------------------------------------------------|
A|----------4-----------4-----------4-----------4-------------------|
D|1-1-4-1-1---1-1-4-1-1---1-1-4-1-1---1-1-4-1-1----1-1-1-1-1-1-1-1--|

G|-------------------------------------------------------------|
D|-------------------------------------------------------------|
A|----------4-----------4-----------4-----------4--------------|
D|1-1-4-1-1---1-1-4-1-1---1-1-4-1-1---1-1-4-1-1---8-7-6-5-4-3--|
 x12 (1's not 11's)
G|---------------------|
D|---------------------|
A|---------------4444--|
D|1111-4444-6666-------|

 Outro x12
G|--------------------------------------------------------------------------------------|
D|--------------------------------------------------------------------------------------|
A|-----1---44443333---------------------------------------------------------------------|
D|4p1~--1~------------------------------------------------------------------------------|
 x5
G|-------------------|
D|-------------------|
A|6/---1---44556666--|
D|--1~--1~-----------|
 End off
G|-------------------------------------------------------------------------------|
D|-------------------------------------------------------------------------------|
A|-------------------------------------------------------------------------------|
D|1~-----------------------------------------------------------------------------|


| /  slide up
| \  slide down
| h  hammer-on
| p  pull-off
| ~  vibrato
| +  harmonic
| x  Mute note
===============================================================================





Comments


Popular Smashing Pumpkins tabs & chords
Go Chords
Rhinoceros Chords
I Am One Drum Tabs
197 Tabs
Bodies 1 Tabs
Daydream 2 Tabs
Eye Intro Tabs
Pug Tabs
Purr Snickety 1 Tabs
Sweet Sweet Tabs


Song lyrics



↑ Back to top | Tablatures and chords are parodies/interpretations of the original songs. You may use it for private study, scholarship, research or language learning purposes only
© 2014 AZChords.com Contact us | Privacy policy | DMCA | Add/correct tabs | Request tabs | Top 50 tabs