» » »

Smashing Pumpkins, Galapogos Bass tabs (ver.2)

Artists:  A B C D E F G H I J K L M N O P Q R S T U V W X Y Z # 

Galapogos Bass tabs (ver.2)

Smashing Pumpkins Tabs
 Rating:
4/5 (4 votes)
Galapogos lessons Tabs too difficult? Try these video lessons and learn fast
1
                -------------------------------------------------------------------------------
			  Galapogos - Smashing Pumpkins
-------------------------------------------------------------------------------


 Tuning:Drop D
 Intro (Start at 0.11)
G|-------------------------------------------------|
D|-------------------------------------------------|
A|9~--9-8-6--4--4~----4~--4~--4~---4/9~--9-8-6--4--|
D|-------------------------------------------------|

 Verse "Ain't it funny how ew pretend...."
G|------------------------------------------------------------------------|
D|------------------------------------------------------------------------|
A|4~--4~--4~--4~--4/9~--9-8-6--4-4~--4~--4~--4~--4/9~--9-8-6--4-44444444--|
D|------------------------------------------------------------------------|

 Chorus x5
G|-------------------------------------|
D|-------------------------------------|
A|44444444-88888888-66666666-99999999--|
D|-------------------------------------|

 Verse "Cut out your heart....."
G|------------------------------------------------------------------------|
D|------------------------------------------------------------------------|
A|4~--4~--4~--4~--4/9~--9-8-6--4-4~--4~--4~--4~--4/9~--9-8-6--4-44444444--|
D|------------------------------------------------------------------------|

 Pre-Chorus
G|----------------------------------------------------|
D|----------------------------------------------------|
A|4444444444444444-9999999999999999-4444444444444444--|
D|----------------------------------------------------|

 Chorus x5
G|-------------------------------------|
D|-------------------------------------|
A|44444444-88888888-66666666-99999999--|
D|-------------------------------------|

 Post-Chorus
G|-----------------------|
D|-----------------------|
A|66666666-99999999--4~--|
D|-----------------------|

 Pause
 Breakdown x3 (Come in at 3.16)
G|-------------------|
D|-------------------|
A|88888888-66666666--|
D|-------------------|

 Bridge x2
G|----------------------------------------------|
D|----------------------------------------------|
A|44444444-66666666-----------------------------|
D|------------------44444444-77777777-99999999--|

 Chorus x3
G|-------------------------------------|
D|-------------------------------------|
A|44444444-88888888-66666666-99999999--|
D|-------------------------------------|

 Post-Chorus
G|-----------------------|
D|-----------------------|
A|66666666-99999999--4~--|

 Outro
D|----------------------------|
G|----------------------------|
D|----------------------------|
A|4~--4~--4~--4/9-9-8-6-4-4~--|
D|----------------------------|


| /  slide up
| \  slide down
| h  hammer-on
| p  pull-off
| ~  vibrato
| +  harmonic
| x  Mute note
===============================================================================
            
Submit corrections

comments powered by Disqus
↑ Back to top | Smashing Pumpkins Bass for Galapogos. Lyrics for acoustic guitar and electric guitar. 1 Tablatures and chords are parodies/interpretations of the original songs. You may use it for private study, scholarship, research or language learning purposes only