>
 >
Galapogas

Galapogas Guitar Tabs

Smashing Pumpkins - Galapogas chords, tabs, tablatures, lyrics

Guitar lessons | Add/correct | Request | Top 50 tabs Artists:  A B C D E F G H I J K L M N O P Q R S T U V W X Y Z 0-9

Galapogas Guitar Tabs – Smashing Pumpkins

CD, Sheet music, Poster

Do you like Galapogas? Share with your friends now
Tabs
Tune Down 1/2 Step:  Eb Ab Db Gb Bb Eb

Chord Fingerings:
     Dmaj7   Em/D  Bm7   D/F#   Em   G    D9  Dsus2   A   Gm/Bb   C
E|   9       7     x     x      0    3    12  0       0   3       3
B|   10      8     3     3      0    3    10  3       2   3       1
G|   11      9     2     2      0    0    11  2       2   0       0
D|    0      0     0     0      2    0    0   0       2   0       2  
A|    x      x     2     x      2    2    x   x       0   1       3
E|    x      x     x     2      0    3    x   x       x   x       x
 
Fig 1                                                         
    Dsus2             Dmaj7           Dsus2            Dmaj7 
E|---0-------0--------9-------9-------0-------0--------9-------9--------|      
B|----10------10-------10-----10------10------10-------10-----10--------|      
G|-----11-------11------11------11------11-------11------11------11-----|        
D|-0------0---------0-------0-------0-------0---------0-------0---------|      
A|----------------------------------------------------------------------|     
E|----------------------------------------------------------------------|    

Fig 2  (Variation on Fig 1; very similar) 
    Dsus2                                Dmaj7 
E|---0-------0--------0--------0---------9-------9--------9------9------|
B|----10------10-------10------10--------10------10------10-----10------|
G|-----11-------11-------11-------11-------11------11-----11------11----|
D|-0------0---------0--------0---------0-------0--------0------0--------|
A|----------------------------------------------------------------------|
E|----------------------------------------------------------------------|

Fig 3
Em/D      
|--7----7----7---10-7--------7--------|
|----8----8---------------8--------8--|
|-----------------------9--------9----|
|------0----0-------------------------|
|-------------------------------------|
|-------------------------------------|

Fig 4  
I count 3 guitars used in this section (there's probably more).  Here's 3 of them, the 3rd one just plays a high D the whole time. 
Dmaj7   (guitar1)              Dmaj7 (guitar 2)
E|-7-5------3-2------------|   |-12-10-------7-5-----2-3----|  
B|-----5-3-----2-3--3------|   |--------10-8-----5-3--------|  
G|---------------------2---|   |----------------------------|  
 
Fig 5   
  F#m                   E     
E|--------------------|---------2--------|
B|---0------0---------|---0-------0------|
G|-----2------2----2--|-----0---------0--|
D|-4-----4------4-----|-2-----2-----2----|
A|--------------------|------------------|
E|--------------------|------------------|


Intro
Fig1 - Fig3
Fig2 - Fig3

Verse 
 Fig1              Fig3                           Fig2   Fig3           
ain't it funny how we pretend we're still a child softly stolen under our
          Dmaj7
blanket skies
Bm7  D/F#  Em G                  Bm7  D/F# 
              and rescue me from me
    Em           G
and all that I believe
Bm7  D/F#           Em    G 
I    won't deny the pain
Bm7  D/F#           Em     
I    won't deny the change
G                        Bm7     D/F#      Em
and should I fall from   grace   here with you
G                        
will you leave me too

Intro2
Fig1 - Fig3

Verse 
Fig1                     Fig3                Dmaj7  
carve out your heart for keeps in an old oak tree
         D9          Em/D                       Dmaj7     
and hold me for     goodbyes-and  whispered lullabyes
Bm7  D/F# Em  G                 Bm7   D/F# 
              and tell me I am still
     Em                 G
the man I'm supposed to be
Bm7  D/F#           Em   G 
I    won't deny the pain
Bm7  D/F#           Em     
I    won't deny the change
G                        Bm7     D/F#      Em
and should I fall from   grace   here with you
G                 Em   
Will you leave me too
G                          
Will you leave me too

Interlude
Fig 4 >4x
Fig 5 >3x

Bridge
Dsus2                         A                       G
too late to turn to turn back now, i'm running out of sound
         Gm/Bb      C
and I am changing, changing
Dsus2                 A                         G
and if we died right now, this fool you love somehow
             Gm/Bb
is here with you

Bm7  D/F#           Em  G 
I    won't deny the pain
Bm7  D/F#           Em     
I    won't deny the change
G                        Bm7     D/F#      Em
and should I fall from   grace   here with you
G                  Em    
would you leave me too?
G                       Fig 1  - Fig3    Dmaj7
Would you leave me too?





Comments


Popular Smashing Pumpkins tabs & chords
Bodies 2 Bass Tabs
Egg Chords
Sweet Sweet Chords
Astral Planes Tabs
Lucky 13 Tabs
Perfect 3 Tabs
Quiet Tabs
Stubleine Tabs
Zero 1 Tabs
Never Let Me Down Again Ukulele


Song lyrics



↑ Back to top | Tablatures and chords are parodies/interpretations of the original songs. You may use it for private study, scholarship, research or language learning purposes only
© 2014 AZChords.com Contact us | Privacy policy | DMCA | Add/correct tabs | Request tabs | Top 50 tabs