>
 >
Fuck You

Fuck You Guitar Tabs

Smashing Pumpkins - Fuck You chords, tabs, tablatures, lyrics

Guitar lessons | Add/correct | Request | Top 50 tabs Artists:  A B C D E F G H I J K L M N O P Q R S T U V W X Y Z 0-9

Fuck You Guitar Tabs – Smashing Pumpkins

CD, Sheet music, Poster

Do you like Fuck You? Share with your friends now
Bass TabsTabs

FUCK YOU (An Ode to No One) - by the Smashing Pumpkins from
==== === ==================   Mellon Collie.  You know who wrote it.

Eb tuning

*1 Heavy distortion, palm muting throughout

|---------------------------------------------------------|
|---------------------------------------------------------|
|---------------------------------------------------------|
|---------------------------------------------------------|
|---------------------------------------------------------|
|-2-2-2-2-2-2-2-2-2-2-2-2-2-2-2-2...5-5-5-5-5-5-5-5-5-5-5-|

|---------------------------------------------------------|
|---------------------------------------------------------|
|---------------------------------------------------------|
|---------------------------------------------------------|
|---------------------------------------------------------|
|-5-5-5-5-5-5-5-5...2-2-2-2-2-2-2-2-2-2-2-2....5-5-5-5----|..

gradually let off of palm muting
|--------------------------------------------------------|
|--------------------------------------------------------|
|--------------------------------------------------------|
|--------------------------------------------------------|
|--------------------------------------------------------|
|-2-2-2-2-2-2-2-2-2-2-2-2-2-2-2-2------------------------|

*2

|---------------------------------------------------------|
|---------------------------------------------------------|
|---------------------------------------------------------|
|-4-----4-----4-------4-7-4-----4-----4-------4-7-4-----4-|
|-4-----4-----4-------4(7)4-----4-----4-------4(7)4-----4-|
|-2-0-0-2-0-0-2-0-0-0-2-5-2-0-0-2-0-0-2-0-0-0-2-5-2-0-0-2-|
                           ^repeat
|--------------------------------------------------------|
|--------------------------------------------------------|
|--------------------------------------------------------|
|-----2--2-----------------------------------------------|
|-----2--2-----------------------------------------------|
|-0-0-0--0-----------------------------------------------|

back to *1

repeat *2 but add this to the end

|--------------------------------------------------------|
|--------------------------------------------------------|
|-------9------------------------------------------------|
|-9-9-X-9----2-------------------------------------------|
|-9-9-X-7----2-------------------------------------------|
|-7-7-X------0-------------------------------------------|

*3

  p.m.----------------------------------------------------|
|---------------------------------------------------------|
|---------------------------------------------------------|
|---------------------------------------------------------|
|---------------------------------------------------------|
|---------------------------------------------------------|
|-2-2-2-2-2-2-2-2-2-2-2-2-0h2p0-5~------------------------|
                                   ^repeat twice more

  p.m.----------------------------------------------------|
|---------------------------------------------------------|
|---------------------------------------------------------|
|---------------------------------------------------------|
|-------------------------2--2----------------------------|
|-------------------------2--2----------------------------|
|-2-2-2-2-2-2-2-2-2-2-2-2-0--0----------------------------|

*4 (strum to the rhythm)

|----------------------------------------------------------|
|----------------------------------------------------------|
|----------------------------------------------------------|
|-4-----4-4-4---4-4-6-6-----7-----9-----11-----------------|
|-X-----X-X-X---X-X-X-X-----X-----X-----X--2---------------|
|-2-...-2-2-2-0-2-2-4-4-...-5-...-7-...-9--0---------------|

|--------------------------------------------------------|
|--------------------------------------------------------|
|--------------------------------------------------------|
|-4-4-----2-2-2-4-4-----2-2-2-4-4-----2-2-2-4-4---2------|
|-4-4-----2-2-2-4-4-----2-2-2-4-4-----2-2-2-4-4---2------|
|-2-2-----0-0-0-2-2-----0-0-0-2-2-----0-0-0-2-2---0------|

  p.m.-----------..---------------------------------------|
|---------------------------------------------------------|
|---------------------------------------------------------|
|---------------------------------------------------------|
|---------------------------------------------------------|
|---------------------------------------------------------|
|-2-2-2-2-2-2-2-2...--------------------------------------|

slow down....stop.

less distortion

|--------------------------------------------------------|
|--------------------------------------------------------|
|-2------------2---------2-------------------------------|
|-2--2--4------2--2--4---2--2--4---2---------------------|
|-0--2--4------0--2--4---0--2--4---2---------------------|
|----0--2--/9\----0--2------0--2---0---------------------|

repeat *4



Tuning: down 1/2 step

intro- palm mutes throughout
   F#///////////////////E/////////////////////////
---4--------------------2------------------------------------------|
---4--------------------2------------------------------------------|
---2--------------------0------------------------------------------|

F#                                     E
never going back, never giving in, ill never be the shine in your spit

verse
  F#       E  A
--------------2-----------------------------------------------------|
--4-4-4-4--2--2-----------------------------------------------------|
--4-4-4-4--2--0-----------------------------------------------------|
--2-2-2-2--0--------------------------------------------------------|


chorus
  F#///////G#//////A///////B////C#   A   F#
--4--------4-------7-------9----11---7---4--------------------------|
--2--------6-------5-------7----9----5---2--------------------------|

F#      G#               A                 B       C# A  F#
No way, I don't need it, I don't need your love to disconnect





Comments


Popular Smashing Pumpkins tabs & chords
Let Me Give The World To You Bass Tabs
Medellia Of The Grey Skies Chords
Perfect Chords
To Shiela Chords
Bodies 1 Tabs
Bullet With Butterfly Wings (Intro) Tabs
Mayonaise 1 Tabs
Mcis 1 Tabs
Panopticon Tabs
Thru The Eyes Of Ruby Tabs


Song lyrics



↑ Back to top | Tablatures and chords are parodies/interpretations of the original songs. You may use it for private study, scholarship, research or language learning purposes only
© 2014 AZChords.com Contact us | Privacy policy | DMCA | Add/correct tabs | Request tabs | Top 50 tabs