>
 >
For Martha 1

For Martha 1 Guitar Tabs

Smashing Pumpkins - For Martha 1 chords, tabs, tablatures, lyrics

Guitar lessons | Add/correct | Request | Top 50 tabs Artists:  A B C D E F G H I J K L M N O P Q R S T U V W X Y Z 0-9

For Martha 1 Guitar Tabs – Smashing Pumpkins

CD, Sheet music, Poster

Do you like For Martha 1? Share with your friends now
TabsTabs v2
for martha
smashing pumpkins
adore - 1998

e-------0--------0-------------------------0--------0-------------------|
B---0-2------0-2------0-1-3---0-1-3----0-2------0-2------0-1-3---0-1-3--|
G-2--------2--------2-------2--------2--------2--------2-------2--------|
D--4-4-4-4--4-4-4-4--3-3-3-3-3-3-3-3--4-4-4-4--4-4-4-4--3-3-3-3-3-3-3-3-|
A-----------------------------------------------------------------------|
E-----------------------------------------------------------------------|

e-------0--------0-----------------------|
B---0-2------0-2------0-2-3-5-7-10-12----|
G-2--------2--------2--------------------|
D--2-2-2-2--2-2-2-2--0-0-0-0-0-0--0--0---|
A----------------------------------------|
E----------------------------------------|

e-------0-0--0---------------0-0--0---------------0-0--0--------|
B---0-2--------2-0-------0-2--------2-0-------0-2--------2-0----|
G-2--------------4-6~--2--------------4-6~--2--------------4-6~-|
D-4~-------------------4~-------------------4~------------------|
A----------------4~-------------------4~-------------------4~---|
E---------------------------------------------------------------|

e-------------------------------------|
B-2-2--3--2------------0-0----2---2---|
G------2----2-----2----1-1------------|
D---------------4-----------2---2-----|
A------2------2-----------------------|
E--------------------0----------------|

e--2--0--------2-------------2--0--------------------|
B--2-----2--0--3--2-0--------2-----2--0--------------|
G--2-----------4------2---2--2-----------4----2------|
D--------------4--------4----------------4--4---4----|
A--------------2-------------------------2-----------|
E----------------------------------------------------|

e--2--0--------2-----------------------------0--|
B--2-----2--0--3--2-0----------5-5---5---3---0--|
G--2-----------4------2---2----6-6---6---4---1--|
D--------------4--------4----6-----6-----4---2--|
A--------------2-------------4-----4-----2---2--|
E--------------------------------------------0--|

e--2---2---2---2---4-4-4-4---2--2---2---2---4-----4--4-4----|
B--2---2---2---2---5-5-5-5---2--2---2---2---5-----5--5-5----|
G--2---2---2---2---6-6-6-6---2--2---2---2---6-----6--6-6----|
D--4---4---4---4---6-6-6-6---4--4---4---4---6-----6--6-6----|
A--4---4---4---4---4-4-4-4---4--4---4---4---4-----4--4-4----|
E--2---2---2---2-------------2--2---2---2-------------------|
       whenever i  run          wherever i  run to you lost

e-2---2---2-2---4-4-4-4----2-2-2-2--0-0-0-0--|
B-2---2---2-2---5-5-5-5----3-3-3-3--0-0-0-0--|
G-2---2---2-2---6-6-6-6----4-4-4-4--1-1-1-1--|
D-4---4---4-4---6-6-6-6----4-4-4-4--2-2-2-2--|
A-4---4---4-4---4-4-4-4----2-2-2-2--2-2-2-2--|
E-2---2---2-2-----------------------0-0-0-0--|
  one its never done  just hanging  on

guitar 1:
e-------------------2-------2-2---2-----|
B-3-3-3-3-3-3-3-3---2-------2-2---2-----|
G-2-2-2-2-2-2-2-2---2-------2-2---2-----|
D-0-0-0-0-0-0-0-0---4-------4-4---4-----|
A-0-0-0-0-0-0-0-0---4-------4-4---4-----|
E-------------------2-------2-2---2-----|
                the past has let me
guitar 2:
e-----------------|
B-7\5--5----------|
G--------7-7\6-2--|
D-----------------|
A-----------------|
E-----------------|

guitar 1:
e-----------------2-------2-2--2---|
B-3-3-3-3-3-3-3-3-2-------2-2--2---|
G-2-2-2-2-2-2-2-2-2-------2-2--2---|
D-0-0-0-0-0-0-0-0-4-------4-4--4---|
A-0-0-0-0-0-0-0-0-4-------4-4--4---|
E-----------------2-------2-2--2---|
 be             returning as if

guitar 2:
e-----------------|
B-7\5--5----------|
G--------7-7\6-2--|
D-----------------|
A-----------------|
E-----------------|

guitar 1:
e------------------2~---------0~----2~-|
B-3-3-3-3-3-3-3-3--2~---------0~----3~-|
G-2-2-2-2-2-2-2-2--2~---------1~----4~-|
D-0-0-0-0-0-0-0-0--4~---------2~----4~-|
A-0-0-0-0-0-0-0-0--4~---------2~----2~-|
E------------------2~---------0~-------|
dream              shattered as belief

guitar 2:
e-----------------|
B-7\5--5----------|
G--------7-7\6-2--|
D-----------------|
A-----------------|
E-----------------|

e-------------0--0---0----------------|
B----0---2-----------------2---0------|
G-2----------------------------4---6~-|
D-4~----------------------------------|
A------------------------------4~-----|
E-------------------------------------|

  if you have to go, don't say goodbye

e------------------------------7///9~---|
B---------------------------------------|
G---------------------------------------|
D---------------------------------------|
A---------------------------------------|
E---------------------------------------|

e-------------0--0---0-----------------|
B----0---2-----------------2---0-------|
G-2----------------------------4-6~----|
D-4~-----------------------------------|
A------------------------------4~------|
E--------------------------------------|

  if you have to go, don't you cry

e-------------0--0---0-----------------|
B----0---2-------------2----0----------|
G-2-------------------------4---6~-----|
D-4~-----------------------------------|
A---------------------------4~---------|
E--------------------------------------|

  if you have to go, i will get by

e---------------------------7///9~---|
B------------------------------------|
G------------------------------------|
D------------------------------------|
A------------------------------------|
E------------------------------------|

e---------------------------------------------|
B------------3--2-----------------------2-2---|
G------------2------2--------1---1------------|
D-----------------------------------2---------|
A------------2~-------------------------------|
E------------------------0--------------------|
someday i'll follow you, see you on the other

guitar 1:
e-0--0-0-0-0-3---3---3---3-----3--3-2--2-2-2-2--|
B-2--2-2-2-2-3---3---3---3-----3--3-3--3-3-3-3--|
G-2--2-2-2-2-0---0---0---0-----0--0-4--4-4-4-4--|
D-2--2-2-2-2-0---0---0---0-----0--0-4--4-4-4-4--|
A-0--0-0-0-0-2---2---2---2-----2--2-2--2-2-2-2--|
E------------3---3---3---3-----3--3-------------|
 side        but for the grace of love

guitar 1:
e-0---0----0---0--0----3---3--3--3--3-|
B-2---2----2---2--2----3---3--3--3--3-|
G-2---2----2---2--2----0---0--0--0--0-|
D-2---2----2---2--2----0---0--0--0--0-|
A-0---0----0---0--0----2---2--2--2--2-|
E----------------------3---3--3--3--3-|
  i'd will the meaning of

guitar 2:
e-------------------------------------|
B-------------------------------------|
G------------------------9\7-7/11\9-7-|
D-------------------------------------|
A-------------------------------------|
E-------------------------------------|

guitar 1:
e-0--0--0-0---0-0--0--0-0-0-0--0--0-0-0-0-|
B-1--1--1-1---1-1--2--2-2-2-2--2--2-2-2-2-|
G-2--2--2-2---2-2--2--2-2-2-2--2--2-2-2-2-|
D-3--3--3-3---3-3--2--2-2-2-2--2--2-2-2-2-|
A-3--3--3-3---3-3--0--0-0-0-0--0--0-0-0-0-|
E-----------------------------------------|
  heaven  from above

guitar 1:
e--3---3---3---3-----3--3-2--2-2-2-2--|
B--3---3---3---3-----3--3-3--3-3-3-3--|
G--0---0---0---0-----0--0-4--4-4-4-4--|
D--0---0---0---0-----0--0-4--4-4-4-4--|
A--2---2---2---2-----2--2-2--2-2-2-2--|
E--3---3---3---3-----3--3-------------|
   but for the grace of love

guitar 1:
e-0---0----0---0--0----3---3--3--3--3-|
B-2---2----2---2--2----3---3--3--3--3-|
G-2---2----2---2--2----0---0--0--0--0-|
D-2---2----2---2--2----0---0--0--0--0-|
A-0---0----0---0--0----2---2--2--2--2-|
E----------------------3---3--3--3--3-|
  i'd will the meaning of

guitar 1:
e-0--0--0-0---0-0--0--0-0-0-0-|
B-1--1--1-1---1-1--2--2-2-2-2-|
G-2--2--2-2---2-2--2--2-2-2-2-|
D-3--3--3-3---3-3--2--2-2-2-2-|
A-3--3--3-3---3-3--0--0-0-0-0-|
E-----------------------------|
  heaven  from above

guitar 1:
e--------------------2-------2--2--2-----|
B-3-3-3-3-3-3-3-3----2-------2--2--2-----|
G-2-2-2-2-2-2-2-2----2-------2--2--2-----|
D-0-0-0-0-0-0-0-0----4-------4--4--4-----|
A-0-0-0-0-0-0-0-0----4-------4--4--4-----|
E--------------------2-------2--2--2-----|
                your picture out of

guitar 2:
e-----------------|
B-7\5--5----------|
G--------7-7\6-2--|
D-----------------|
A-----------------|
E-----------------|

guitar 1:
e--------------------2------2-2--2---|
B-3-3-3-3-3-3-3-3----2------2-2--2---|
G-2-2-2-2-2-2-2-2----2------2-2--2---|
D-0-0-0-0-0-0-0-0----4------4-4--4---|
A-0-0-0-0-0-0-0-0----4------4-4--4---|
E--------------------2------2-2--2---|
time            left aching in my

guitar 2:
e-----------------|
B-7\5--5----------|
G--------7-7\6-2--|
D-----------------|
A-----------------|
E-----------------|

guitar 1:
e------------------2~------0~---2~-|
B-3-3-3-3-3-3-3-3--2~------0~---3~-|
G-2-2-2-2-2-2-2-2--2~------1~---4~-|
D-0-0-0-0-0-0-0-0--4~------2~---4~-|
A-0-0-0-0-0-0-0-0--4~------2~---2~-|
E------------------2~------0~------|
 mind              shadows kept alive

guitar 2:
e-----------------|
B-7\5--5----------|
G--------7-7\6-2--|
D-----------------|
A-----------------|
E-----------------|

e-------------0--0---0----------------|
B----0---2-----------------2---0------|
G-2----------------------------4---6~-|
D-4~----------------------------------|
A------------------------------4~-----|
E-------------------------------------|

  if you have to go, don't say goodbye

e------------------------------7///9~---|
B---------------------------------------|
G---------------------------------------|
D---------------------------------------|
A---------------------------------------|
E---------------------------------------|

e-------------0--0---0-----------------|
B----0---2-----------------2---0-------|
G-2----------------------------4-6~----|
D-4~-----------------------------------|
A------------------------------4~------|
E--------------------------------------|

  if you have to go, don't you cry

e-------------0--0---0-----------------|
B----0---2-------------2----0----------|
G-2-------------------------4---6~-----|
D-4~-----------------------------------|
A---------------------------4~---------|
E--------------------------------------|

  if you have to go, i will get by

e---------------------------7///9~---|
B------------------------------------|
G------------------------------------|
D------------------------------------|
A------------------------------------|
E------------------------------------|

e----------------------------------------------|
B-2-2----3-2-----------------------------2--2--|
G--------2------2-------2-----1--1-------------|
D---------------------4--------------2---------|
A--------2~---------2--------------------------|
E-------------------------0--------------------|
  i will follow you,      see you on the other

e--2--0----------------------2--0--------------------|
B--2-----2--0--3--2-0--------2-----2--0--------------|
G--2-----------4------2---2--2-----------4----2------|
D--------------4--------4----------------4--4---4----|
A--------------2-------------------------2-----------|
E----------------------------------------------------|
side

e--2--0--------------------------------------|
B--2-----2--0--3--2-0----------5-5---5---3---|
G--2-----------4------2---2----6-6---6---4---|
D--------------4--------4----6-----6-----4---|
A--------------2-------------4-----4-----2---|
E--------------------------------------------|

e-------0--------0-------------------------0--------0-------------------|
B---0-2------0-2------0-1-3---0-1-3----0-2------0-2------0-1-3---0-1-3--|
G-2--------2--------2-------2--------2--------2--------2-------2--------|
D--4-4-4-4--4-4-4-4--3-3-3-3-3-3-3-3--4-4-4-4--4-4-4-4--3-3-3-3-3-3-3-3-|
A-----------------------------------------------------------------------|
E-----------------------------------------------------------------------|

e-------0--------0----------0-2-5-7-|
B---0-2------0-2------0-2-3---------|
G-2--------2--------2---------------|
D--2-2-2-2--2-2-2-2--0-0-0-0--------|
A----------------------------2-2-2--|
E-----------------------------------|

guitar 1:
e-0--0-0-0-0-3-3-3-3-3-3----------------0-0-0-0-0-0---|
B-2--2-2-2-2-3-3-3-3-3-3-3--3--3--3--3--2-2-2-2-2-2---|
G-2--2-2-2-2-0-0-0-0-0-0-4--4--4--4--4--2-2-2-2-2-2---|
D-2--2-2-2-2-0-0-0-0-0-0-4--4--4--4--4--2-2-2-2-2-2---|
A-0--0-0-0-0-2-2-2-2-2-2-2--2--2--2--2--0-0-0-0-0-0---|
E------------3-3-3-3-3-3------------------------------|

guitar 2:
e-----------------------------------------------------|
B-----------------------------------------------------|
G----------9-11~---------------------11-13~-----------|
D--7h9-9/11----------------9h11-11/13-----------------|
A-----------------------------------------------------|
E-----------------------------------------------------|

guitar 1:
e-3--3-3-3-3-0-0-0-0-0-0--0--0--0-0--0-0-0-0--|
B-3--3-3-3-3-1-1-1-1-1-1--2--2--2-2--2-2-2-2--|
G-0--0-0-0-0-2-2-2-2-2-2--2--2--2-2--2-2-2-2--|
D-0--0-0-0-0-3-3-3-3-3-3--2--2--2-2--2-2-2-2--|
A-2--2-2-2-2-3-3-3-3-3-3--0--0--0-0--0-0-0-0--|
E-3--3-3-3-3----------------------------------|

guitar 2:
e------------------------|
B------------------------|
G----------7-9~----------|
D--5h7-7/9---------------|
A------------------------|
E------------------------|

guitar 1:
e-0--0-0-0-0-3---3---3---3-----3--3-2---2-2-2-2----0-----0----0---0--0----|
B-2--2-2-2-2-3---3---3---3-----3--3-3---3-3-3-3----2-----2----2---2--2----|
G-2--2-2-2-2-0---0---0---0-----0--0-4---4-4-4-4----2-----2----2---2--2----|
D-2--2-2-2-2-0---0---0---0-----0--0-4---4-4-4-4----2-----2----2---2--2----|
A-0--0-0-0-0-2---2---2---2-----2--2-2---2-2-2-2----0-----0----0---0--0----|
E------------3---3---3---3-----3--3---------------------------------------|
             but for the grace of love             who'd will the meaning

guitar 2:
e----------------------------------------------------------------------|
B----------------------------------------------------------------------|
G----------9-11~--------------------------------11-13~-----------------|
D--7h9-9/11---------------------------9h11-11/13-----------------------|
A----------------------------------------------------------------------|
E----------------------------------------------------------------------|

guitar 3:
e--19br~-------19br~------------------19br~------------19br--|
B------------------------------------------------------------|
G------------------------------------------------------------|
D------------------------------------------------------------|
A------------------------------------------------------------|
E------------------------------------------------------------|

guitar 1:
e--3---3--3--3--3-0--0--0-0---0-0--0--0--0-0--0-0-0-0--|
B--3---3--3--3--3-1--1--1-1---1-1--2--2--2-2--2-2-2-2--|
G--0---0--0--0--0-2--2--2-2---2-2--2--2--2-2--2-2-2-2--|
D--0---0--0--0--0-3--3--3-3---3-3--2--2--2-2--2-2-2-2--|
A--2---2--2--2--2-3--3--3-3---3-3--0--0--0-0--0-0-0-0--|
E--3---3--3--3--3--------------------------------------|
   of             heaven  from above

guitar 2:
e------------------------|
B------------------------|
G---------------7-9~-----|
D-----5h7---7/9----------|
A------------------------|
E------------------------|

guitar 3:
e-----19br----------------|
B---------20-20/22-22br~~-|
G-------------------------|
D-------------------------|
A-------------------------|
E-------------------------|

guitar 1:
e-0--0-0-0-0-3---3---3---3-----3--3-2---2-2-2-2----0-----0----0---0--0----|
B-2--2-2-2-2-3---3---3---3-----3--3-3---3-3-3-3----2-----2----2---2--2----|
G-2--2-2-2-2-0---0---0---0-----0--0-4---4-4-4-4----2-----2----2---2--2----|
D-2--2-2-2-2-0---0---0---0-----0--0-4---4-4-4-4----2-----2----2---2--2----|
A-0--0-0-0-0-2---2---2---2-----2--2-2---2-2-2-2----0-----0----0---0--0----|
E------------3---3---3---3-----3--3---------------------------------------|
             but for the grace of love             who'd will the meaning

guitar 2:
e----------------------------------------------------------------------|
B----------------------------------------------------------------------|
G----------9-11~--------------------------------11-13~-----------------|
D--7h9-9/11---------------------------9h11-11/13-----------------------|
A----------------------------------------------------------------------|
E----------------------------------------------------------------------|

guitar 3:
e--19br~-------19br~------------------19br~------------19br--|
B------------------------------------------------------------|
G------------------------------------------------------------|
D------------------------------------------------------------|
A------------------------------------------------------------|
E------------------------------------------------------------|

guitar 1:
e--3---3--3--3--3-0--0--0-0---0-0--0--0--0-0--0-0-0-0--|
B--3---3--3--3--3-1--1--1-1---1-1--2--2--2-2--2-2-2-2--|
G--0---0--0--0--0-2--2--2-2---2-2--2--2--2-2--2-2-2-2--|
D--0---0--0--0--0-3--3--3-3---3-3--2--2--2-2--2-2-2-2--|
A--2---2--2--2--2-3--3--3-3---3-3--0--0--0-0--0-0-0-0--|
E--3---3--3--3--3--------------------------------------|
   of             heaven  from above

guitar 2:
e------------------------|
B------------------------|
G---------------7-9~-----|
D-----5h7---7/9----------|
A------------------------|
E------------------------|

guitar 3:
e-----19br----------------|
B---------20-20/22-22br~~-|
G-------------------------|
D-------------------------|
A-------------------------|
E-------------------------|

guitar 1:
e--------------------2------2-2---2-------|
B-3-3-3-3-3-3-3-3----2------2-2---2-------|
G-2-2-2-2-2-2-2-2----2------2-2---2-------|
D-0-0-0-0-0-0-0-0----4------4-4---4-------|
A-0-0-0-0-0-0-0-0----4------4-4---4-------|
E--------------------2------2-2---2-------|
                long horses  we are

guitar 2:
e-----------------|
B-7\5--5----------|
G--------7-7\6-2--|
D-----------------|
A-----------------|
E-----------------|

guitar 1:
e------------------2--------2--2------2---|
B-3-3-3-3-3-3-3-3--2--------2--2------2---|
G-2-2-2-2-2-2-2-2--2--------2--2------2---|
D-0-0-0-0-0-0-0-0--4--------4--4------4---|
A-0-0-0-0-0-0-0-0--4--------4--4------4---|
E------------------2--------2--2------2---|
born               creatures  more than

guitar 2:
e-----------------|
B-7\5--5----------|
G--------7-7\6-2--|
D-----------------|
A-----------------|
E-----------------|

guitar 1:
e------------------2~---------0~------2~-|
B-3-3-3-3-3-3-3-3--2~---------0~------3~-|
G-2-2-2-2-2-2-2-2--2~---------1~------4~-|
D-0-0-0-0-0-0-0-0--4~---------2~------4~-|
A-0-0-0-0-0-0-0-0--4~---------2~------2~-|
E------------------2~---------0~---------|
torn               mourning our way home

guitar 2:
e-----------------|
B-7\5--5----------|
G--------7-7\6-2--|
D-----------------|
A-----------------|
E-----------------|

e-------0-0--0---------------0-0--0---------------0-0--0--------|
B---0-2--------2-0-------0-2--------2-0-------0-2--------2-0----|
G-2--------------4-6~--2--------------4-6~--2--------------4-6~-|
D-4~-------------------4~-------------------4~------------------|
A----------------4~-------------------4~-------------------4~---|
E---------------------------------------------------------------|

e------------------------------------|
B-2-2--3--2------------0-0----2--2---|
G------2----2-----2----1-1-----------|
D---------------4-----------2--------|
A------2------2----------------------|
E--------------------0---------------|

e--2--0---------2-------------2--0------------------|
B--2-----2--0---3--2-0--------2-----2--0------------|
G--2------------4------2---2--2-----------4----2----|
D---------------4--------4----------------4--4---4--|
A---------------2-------------------------2---------|
E---------------------------------------------------|

e---------------------------------------------------|
B---------------------------------------------------|
G---------------------------------------------------|
D---------------9-------------------9\7-------------|
A--------7/9-/12------------------------9\7---------|
E---------------------------------------------------|

e--2--0----------2--------------------------2-----------------0--|
B--2-----2--0----3--2-0-----------5-5---5---3-2-0----2--0-----2--|
G--2-------------4------2---2-----6-6---6---4-----2--1----2---2--|
D----------------4--------4-----6-----6-----4--------2------4-2--|
A----------------2--------------4-----4-----2--------2--------0--|
E----------------------------------------------------0-----------|

e------------------------------------|
B------------------------------------|
G------------------------------------|
D------------------------------------|
A--------7/9-/12/9------------9/11---|
E------------------------------------|


e-0000000000000000000000000000000000000000-
B-2222222222222222222222222222222222222222-
G-2222222222222222222222222222222222222222-
A------------------------------------------|
E------------------------------------------|





Comments


Popular Smashing Pumpkins tabs & chords
Spaceboy 2 Bass Tabs
Tear Bass Tabs
Beautiful 1 Chords
Fucky Fucky Chords
Luna Chords
Heavy Metal Machine Tabs
Let Me Give The World To You 1 Tabs
She Tabs
Rocket Ukulele
Slow Dawn Ukulele


Song lyrics



↑ Back to top | Tablatures and chords are parodies/interpretations of the original songs. You may use it for private study, scholarship, research or language learning purposes only
© 2014 AZChords.com Contact us | Privacy policy | DMCA | Add/correct tabs | Request tabs | Top 50 tabs