>
 >
For God And Country

For God And Country Guitar Tabs

Smashing Pumpkins - For God And Country chords, tabs, tablatures, lyrics

Guitar lessons | Add/correct | Request | Top 50 tabs Artists:  A B C D E F G H I J K L M N O P Q R S T U V W X Y Z 0-9

For God And Country Guitar Tabs – Smashing Pumpkins

CD, Sheet music, Poster

Do you like For God And Country? Share with your friends now
Tabs
Tuning: Standard


INTRO

e|--1----1---------3----0----1-----1----------3-|
B|--3----1----1----3----1----3-----3----1-----3-|
G|--2----2----2----0----0---2-----2----2-----0-|
D|-------3----2----0----2----------3----2-----0-|       x2
A|-------3---------2----3----------3----------2-|
E|-------1---------3---------------1----------3-|       

VERSE
                 
e|--1----1---------3----0----1-----1----------3-|
B|--3----1----1----3----1----3-----3----1-----3-|
G|--2----2----2----0----0---2-----2----2-----0-|
D|-------3----2----0----2----------3----2-----2-|
A|-------3---------2----3----------3----------2-|
E|-------1---------3---------------1----------3-| 
                  
e|--1----1---------3----0----1-----1---|
B|--3----1----1----3----1----3-----3---|
G|--2----2----2----0----0---2-----2---|
D|-------3----2----0----2----------3---|
A|-------3---------2----3----------3---|
E|-------1---------3---------------1---|        
           

CHORUS

e|-1---------1----1-|
B|-1----1----3----1-|
G|-2----2----2----2-|
D|-1----2---------3-|
A|-3--------------3-|
E|-1--------------1-|

e|-1---------1----1-----------|
B|-1----1----3----1-----------|
G|-2----2----2----2----1----1-|
D|-1----2---------3----2----1-|
A|-3--------------3----2----2-|
E|-1--------------1-----------|


VERSE

e|-----------------------|
B|-1----1-----1----1-----|
G|-2----0-----2----0-----|
D|-2----2-----2----2-----|
A|-----------------------|
E|-----------------------|


e|--1----1---------3----0---|
B|--3----1----1----3----1---|
G|--2----2----2----0----0--|
D|-------3----2----0----2---|
A|-------3---------2----3---|
E|-------1---------3--------|    
   
e|--1----1---------3----|
B|--3----1----1----3----|
G|--2----2----2----0----|     x2
D|-------3----2----0----|
A|-------3---------2----|
E|-------1---------3----|      

e|--1----1---------(3)----|
B|--3----1----1----(3)----|
G|--2----2----2----(0)----|
D|-------3----2----(0)----|
A|-------3---------(2)----|
E|-------1---------(3)----| 



VERSE
      
e|--1----1---------3----|
B|--3----1----1----3----|
G|--2----2----2----0----|
D|-------3----2----0----|
A|-------3---------2----|
E|-------1---------3----|  

e|--1----1---------3----0----1-----1----------3-|
B|--3----1----1----3----1----3-----3----1-----3-|
G|--2----2----2----0----0---2-----2----2-----0-|
D|-------3----2----0----2----------3----2-----0-|
A|-------3---------2----3----------3----------2-|
E|-------1---------3---------------1----------3-| 

e|--1----1---------3----0----1-----1---|
B|--3----1----1----3----1----3-----3---|
G|--2----2----2----0----0---2-----2---|
D|-------3----2----0----2----------3---|
A|-------3---------2----3----------3---|
E|-------1---------3---------------1---|                   

e|-----------------------|
B|-1----1-----1----1-----|
G|-2----0-----2----0-----|
D|-2----2-----2----2-----|
A|-----------------------|
E|-----------------------|





CHORUS

e|--1----1---------3----0---|
B|--3----1----1----3----1---|
G|--2----2----2----0----0--|
D|-------3----2----0----2---|
A|-------3---------2----3---|
E|-------1---------3--------|       

e|--1----1---------3----|
B|--3----1----1----3----|
G|--2----2----2----0----|
D|-------3----2----0----|       x2
A|-------3---------2----|
E|-------1---------3----|    
  
e|--1----1---------(3)----|
B|--3----1----1----(3)----|
G|--2----2----2----(0)----|
D|-------3----2----(0)----|
A|-------3---------(2)----|
E|-------1---------(3)----| 


VERSE

e|--1----1---------3----|
B|--3----1----1----3----|
G|--2----2----2----0----|
D|-------3----2----0----|
A|-------3---------2----|
E|-------1---------3----|

e|--1----1---------3----0----1-----1----------3-|
B|--3----1----1----3----1----3-----3----1-----3-|
G|--2----2----2----0----0---2-----2----2-----0-|
D|-------3----2----0----2----------3----2-----2-|
A|-------3---------2----3----------3----------2-|
E|-------1---------3---------------1----------3-| 

e|-1----1---------3----0----1-----1---|
B|-3----1----1----3----1----3-----3---|
G|-2----2----2----0----0---2-----2---|
D|------3----2----0----2----------3---|
A|------3---------2----3----------3---|
E|------1---------3---------------1---|                   


CHORUS

e|-1---------1----1-|
B|-1----1----3----1-|
G|-2----2----2----2-|
D|-1----2---------3-|
A|-3--------------3-|
E|-1--------------1-|


e|-1---------1----1-----------|
B|-1----1----3----1-----------|
G|-2----2----2----2----1----1-|
D|-1----2---------3----2----1-|
A|-3--------------3----2----2-|
E|-1--------------1-----------|


VERSE
   
e|-1---------1----1-|
B|-2----1----1----3-|
G|-2----0----2----2-|         x3
D|------2----3------|
A|------3----3------|
E|-----------1------|       

e|-1---------1----1-----------|
B|-2----1----3----1-----------|
G|-2----0----2----2----1---2--|
D|------2---------3----2---2--|
A|------3---------3----2---1--|
E|----------------1-----------|

e|-----------------------|
B|-1----1-----1----1-----|
G|-2----0-----2----0-----|
D|-2----2-----2----2-----|
A|-----------------------|
E|-----------------------|

e|--1----1---------3----0---|
B|--3----1----1----3----1---|
G|--2----2----2----0----0--|
D|-------3----2----0----2---|
A|-------3---------2----3---|
E|-------1---------3--------|       

e|--1----1---------3----|
B|--3----1----1----3----|
G|--2----2----2----0----|           x2
D|-------3----2----0----|
A|-------3---------2----|
E|-------1---------3----|      

e|--1----1---------(3)----|
B|--3----1----1----(3)----|
G|--2----2----2----(0)----|
D|-------3----2----(0)----|
A|-------3---------(2)----|
E|-------1---------(3)----| 

e|--1----1---------3----|
B|--3----1----1----3----|
G|--2----2----2----0----|
D|-------3----2----0----|
A|-------3---------2----|
E|-------1---------3----|
OUTRO

e|-1----------1----1----1----3-|
B|-1----1-----3----1----1----3-|
G|-2----2-----2----2----2----0-|
D|-3----2----------3----3----0-|               x5
A|-3---------------3----3----2-|
E|-1---------------1----1----3-|        

e|-1----------1----1---------------|
B|-1----1-----3----1-------------1-|
G|-2----2-----2----2----1----1---2-|
D|-3----2----------3----2----1---2-|
A|-3---------------3----2----2-----|
E|-1---------------1---------------| 





Comments


Popular Smashing Pumpkins tabs & chords
Never Let Me Down 1 Bass Tabs
Silverfuck Bass Tabs
Sun 3 Bass Tabs
Landslide 1 Chords
Dancing In The Moonlight 1 Tabs
Obscured Tabs
Tear Live Tabs
Tonight, Tonight Tabs
Ugly Demo Tabs
Satellites Ukulele


Song lyrics



↑ Back to top | Tablatures and chords are parodies/interpretations of the original songs. You may use it for private study, scholarship, research or language learning purposes only
© 2014 AZChords.com Contact us | Privacy policy | DMCA | Add/correct tabs | Request tabs | Top 50 tabs