>
 >
Eye Live

Eye Live Guitar Tabs

Smashing Pumpkins - Eye Live chords, tabs, tablatures, lyrics

Guitar lessons | Add/correct | Request | Top 50 tabs Artists:  A B C D E F G H I J K L M N O P Q R S T U V W X Y Z 0-9

Eye Live Guitar Tabs – Smashing Pumpkins

CD, Sheet music, Poster

Do you like Eye Live? Share with your friends now
Tabs
-------------------------------------------------------------------------------
-------------------------------------------------------------------------------

Tuning: 1/2 Step Down

This is a pretty cool song, I tabbed this from the exit meloncollie cd, but 

|-------------------------------------------------------------------------|
|----------0----------6-5-6-----6---------------0----------6-5-6-----6----|
|------5-----5---5------------5---5---------5-----5---5------------5---5--|
|--7-7---7-----7----5-------------------7-7---7-----7----5----------------|
|-------------------------------------------------------------------------|
|-------------------------------------------------------------------------|

|-------------------------------------------------------------------------|
|----------0----------6-5-6-----6---------------0----------6-5-6-----6----|
|------5-----5---5------------5---5---------5-----5---5------------5---5--|
|--7-7---7-----7----5-------------------7-7---7-----7----5----------------|
|-------------------------------------------------------------------------|
|-------------------------------------------------------------------------|
                                       I lie
|-------------------------------------------------------------------------|
|----------0----------6-5-6-----6---------------0----------6-5-6-----6----|
|------5-----5---5------------5---5---------5-----5---5------------5---5--|
|--7-7---7-----7----5-------------------7-7---7-----7----5----------------|
|-------------------------------------------------------------------------|
|-------------------------------------------------------------------------|

|-------------------------------------------------------------------------|
|----------0----------6-5-6-----6---------------0----------6-5-6-----6----|
|------5-----5---5------------5---5---------5-----5---5------------5---5--|
|--7-7---7-----7----5-------------------7-7---7-----7----5----------------|
|-------------------------------------------------------------------------|
|-------------------------------------------------------------------------|

|-------------------------------------------------------------------------|
|----------0----------6-5-6-----6---------------0----------6-5-6-----6----|
|------5-----5---5------------5---5---------5-----5---5------------5---5--|
|--7-7---7-----7----5-------------------7-7---7-----7----5----------------|
|-------------------------------------------------------------------------|
|-------------------------------------------------------------------------|
   Is it any wonder I can't sleep?
|-------------------------------------------------------------------------|
|----------0----------6-5-6-----6---------------0----------6-5-6-----6----|
|------5-----5---5------------5---5---------5-----5---5------------5---5--|
|--7-7---7-----7----5-------------------7-7---7-----7----5----------------|
|-------------------------------------------------------------------------|
|-------------------------------------------------------------------------|

|-------------------------------------------------------------------------|
|----------0----------6-5-6-----6---------------0----------6-5-6-----6----|
|------5-----5---5------------5---5---------5-----5---5------------5---5--|
|--7-7---7-----7----5-------------------7-7---7-----7----5----------------|
|-------------------------------------------------------------------------|
|-------------------------------------------------------------------------|
                                       Turn to the gates of heaven
|-----------------------------------------------------------------|
|----------0----------6-5-6-----6-------1-------------------------|
|------5-----5---5------------5---5-----0-------------------------|
|--7-7---7-----7----5-------------------2----------2--------------|
|---------------------------------------3----------2--------------|
|--------------------------------------------------0--------------|
 to myself feel down      Turn away from Eye
|-----------------------------------------------------------------|
|-1------------------------1--------------------------------------|
|-0------------------------0----2----------2----------------------|
|-2--------------2---------2----2----------2----------------------|
|-3--------------2---------3----0----------0----------------------|
|----------------0------------------------------------------------|
                                         It's not enough
|-------------------------------------------------------------------------|
|----------0----------6-5-6-----6---------------0----------6-5-6-----6----|
|------5-----5---5------------5---5---------5-----5---5------------5---5--|
|--7-7---7-----7----5-------------------7-7---7-----7----5----------------|
|-------------------------------------------------------------------------|
|-------------------------------------------------------------------------|

|-------------------------------------------------------------------------|
|----------0----------6-5-6-----6---------------0----------6-5-6-----6----|
|------5-----5---5------------5---5---------5-----5---5------------5---5--|
|--7-7---7-----7----5-------------------7-7---7-----7----5----------------|
|-------------------------------------------------------------------------|
|-------------------------------------------------------------------------|
  I taste              I love
|-------------------------------------------------------------------------|
|--------6-7-6---6--------6-7-6--6----------6-7-6---6--------6-7-6--6-----|
|--5~-----------5-5---5~--------5-5---5~-----------5-5---5~--------5-5----|
|--7~-----------------7~--------------7~-----------------7~---------------|
|--0------------------0---------------0------------------0----------------|
|-------------------------------------------------------------------------|

|-------------------------------------------------------------------------|
|----------0----------6-5-6-----6---------------0----------6-5-6-----6----|
|------5-----5---5------------5---5---------5-----5---5------------5---5--|
|--7-7---7-----7----5-------------------7-7---7-----7----5----------------|
|-------------------------------------------------------------------------|
|-------------------------------------------------------------------------|
                                     Turn to the gates of heaven
|-------------------------------------------------------------------------|
|----------0----------6-5-6-----6---------1------------0----------1-------|
|------5-----5---5------------5---5----0----0-------0----0-----0-----0----|
|--7-7---7-----7----5-----------------2-2----2-----2-2--2-0---2-2-----2---|
|------------------------------------3-----3------0----------3-----3------|
|-------------------------------------------------------------------------|
 to myself feel down Turn away from Eye
|-------------------------------------------------------------------------|
|------0----------1----------------------------1----------0----------1----|
|---0----0-----0----0-----0-----0------7~---0----0-----0----0-----0-----0-|
|--2-2--2-0---2-2----2---2-0---0-0-----5~--2-2----2---2-2--2-0---2-2-----2|
|-0----------3-----3----0-----2----2---0--3-----3----0----------3-----3---|
|---------------------------------3---------------------------------------|

|------------------------| This part is played through 
|---------0----------0---| the rest of the song while
|---5------5---5------5--| Billy plays the other part.
|--7-7--7-----7-7--7-----| It's repeated over and over,
|-0----0-----0----0------| then the drums take over till the end.
|------------------------|

|----------------------------------------------------------|
|----------------------------------------------------------|
|-/9h10p9\7h9p7------------------9h10p9\7h9p7--------------|
|--------------10p9h10/12-7~-----------------10p9h10/12-7~-|
|----------------------------------------------------------|
|----------------------------------------------------------|

|----------------------------------------------------------| For some reason
|----------------------------------------------------------| Billy changes to
|--9h10p9\7h9p7--5p4-/7~-2~-----9h10p9\7h9p7--5p4-/7~-2~---| this when he sings
|----------------------------------------------------------| have a look on
|----------------------------------------------------------|

|-------|
|-------| Finish on This
|-------|
|-------|
|--7~---|
|-------|


************************************

| /   slide up
| \   slide down
| h   hammer-on
| p   pull-off
| ~   vibrato
| +   harmonic
| x   Mute note
| b   Bend
| pb  Pre-bend
| br  Bend release
| pbr Pre-bend release
| brb Bend release bend

************************************

please e-mail me with any questions,coments please don't edit this tab.





Comments


Popular Smashing Pumpkins tabs & chords
Crush 2 Bass Tabs
Blissed And Gone Chords
Dancing In The Moonlight Chords
Thats The Way My Love Is Chords
For God And Country Tabs
Girl Named Sandoz 1 Tabs
Neverlast Tabs
Pastichio Medley Tabs
Pug Tabs
Porcelina Of The Vast Oceans Ukulele


Song lyrics



↑ Back to top | Tablatures and chords are parodies/interpretations of the original songs. You may use it for private study, scholarship, research or language learning purposes only
© 2014 AZChords.com Contact us | Privacy policy | DMCA | Add/correct tabs | Request tabs | Top 50 tabs