» » »

Smashing Pumpkins, Dross Tabs (ver.1)

Artists:  A B C D E F G H I J K L M N O P Q R S T U V W X Y Z # 

Dross Tabs (ver.1)

Smashing Pumpkins Tabs
 Rating:
4/5 (4 votes)
Dross lessons Tabs too difficult? Try these video lessons and learn fast
1
                The Smashing Pumpkins
*Dross*
Machinna II


Tuning: D G C F A D


INTRO
                                      x4
|---------------------------------------|
|---------------------------------------|
|---------------------------------------|
|---------------------------------------|
|---------3-------3-------3-------------|
|-3h5-5-5---1---1---0---0---3---0-3h5-5-|

Lead part over Intro.

|----------------|
|-/17~~~~~~~~\\\-|
|----------------|
|----------------|
|----------------|
|----------------|

|-------------------------|
|-------------------------|
|-------------------5-5---|
|-5/7-7-2-3---3-3-2-5-5---|
|-5/7-7-2-3---3-3-2-3-3---|
|-3/5-5-0-1---1-1-0-------|


VERSE
|----------------------|
|----------------------|
|----------------------|
|-7--6-5--4-3----2--5--|
|-7--6-5--4-3----2--5--|
|-5--4-3--2-1----0--3--|

|----------------------|
|----------------------|
|----------------5-5---|
|-7--2-3---3-3-2-5-5---|
|-7--2-3---3-3-2-3-3---|
|-5--0-1---1-1-0-------|

|----------------------|
|----------------------|
|----------------5-----|
|-7--6-5--4-3----5--5--|
|-7--6-5--4-3----3--5--|
|-5--4-3--2-1-------3--|


CHORUS
                                      x6
|---------------------------------------|
|---------------------------------------|
|---------------------------------------|
|---------------------------------------|
|---------3-------3-------3-------------|
|-3h5-5-5---1---1---0---0---3---0-3h5-5-|

|---------------------------------|
|---------------------------------|
|---------------------------------|
|-3----3-3-3-3-3-3-3-3-3-3--5--5--|
|-3----3-3-3-3-3-3-3-3-3-3--5--5--|
|-1----1-1-1-1-1-1-1-1-1-1--3--3--|


VERSE 2
|-----------------------------|
|-----------------------------|
|-----------------5-5---7-----|
|-5/7-7-2-3---3-2-5-5---7--2--|
|-5/7-7-2-3---3-2-3-3---5--2--|
|-3/5-5-0-1---1-0----------0--|

|----------------------|
|----------------------|
|----------------------|
|-7--6-5--4-3----2--5--|
|-7--6-5--4-3----2--5--|
|-5--4-3--2-1----0--3--|

|-----------------------------|
|-----------------------------|
|-----------------5-5---7-----|
|-5/7-7-2-3---3-2-5-5---7--2--|
|-5/7-7-2-3---3-2-3-3---5--2--|
|-3/5-5-0-1---1-0----------0--|

|----------------------|
|----------------------|
|----------------5-----|
|-7--6-5--4-3----5--5--|
|-7--6-5--4-3----3--5--|
|-5--4-3--2-1-------3--|


CHORUS 2
                                      x6
|---------------------------------------|
|---------------------------------------|
|---------------------------------------|
|---------------------------------------|
|---------3-------3-------3-------------|
|-3h5-5-5---1---1---0---0---3---0-3h5-5-|


BRIDGE
|---------------------------------|
|---------------------------------|
|---------------------------------|
|-3----3-3-3-3-3-3-3-3-3-3--7--7--|
|-3----3-3-3-3-3-3-3-3-3-3--7--7--|
|-1----1-1-1-1-1-1-1-1-1-1--5--5--|

|---------------------------------|
|---------------------------------|
|---------------------------------|
|-3----3-3-3-3-3-3-3-3-3-3--5--5--|
|-3----3-3-3-3-3-3-3-3-3-3--5--5--|
|-1----1-1-1-1-1-1-1-1-1-1--3--3--|


OUTRO
|----------------------|
|----------------------|
|----------------------|
|-7--6-5--4-3----2--5--|
|-7--6-5--4-3----2--5--|
|-5--4-3--2-1----0--3--|

|----------------------|
|----------------------|
|----------------5-----|
|-7--6-5--4-3----5--5--|
|-7--6-5--4-3----3--5--|
|-5--4-3--2-1-------3--|

|----------------------|
|----------------------|
|----------------------|
|-7--6-5--4-3----2--5--|
|-7--6-5--4-3----2--5--|
|-5--4-3--2-1----0--3--|

|----------------------|
|----------------------|
|----------------5-----|
|-7--6-5--4-3----5--5--|
|-7--6-5--4-3----3--5--|
|-5--4-3--2-1-------3--|

                                      x8
|---------------------------------------|
|---------------------------------------|
|---------------------------------------|
|---------------------------------------|
|---------3-------3-------3-------------|
|-3h5-5-5---1---1---0---0---3---0-3h5-5-|
            
Submit corrections

comments powered by Disqus
↑ Back to top | Smashing Pumpkins Tabs for Dross. Lyrics for acoustic guitar and electric guitar. 1 Tablatures and chords are parodies/interpretations of the original songs. You may use it for private study, scholarship, research or language learning purposes only