» » »

Smashing Pumpkins, Doomsday Clock Tabs (ver.3)

Artists:  A B C D E F G H I J K L M N O P Q R S T U V W X Y Z # 

Doomsday Clock Tabs (ver.3)

Smashing Pumpkins Tabs
 Rating:
4/5 (4 votes)
Doomsday Clock lessons Tabs too difficult? Try these video lessons and learn fast
                
Tuning: Eb
Drop Db

A-part

Guitar 1:
eb|------------------------------------|
bb|------------------------------------|
gb|------------------------------------|
db|------------------------------------|
ab|------------------------------------|
db|-0-0-0-0-0-0-0-0-3-3-3-3-5-5/10-10--|

Guitar 2:
eb|----------------------------------|
bb|----------------------------------|
gb|----------------------------------|
db|----------------------------------|
ab|----------------------------------|
db|-0~~~~~~~~~~~~~~~~3~~~~~~2~~/10b--|

A'-part (verse)  4x
  Guitar1(Guitar2)

     Is everyone afraid...
eb|------------------------------------|
bb|------------------------------------|
gb|------------------------------------|
db|------------------------------------|
ab|------------------------------------|
db|-0-0-0-0-0-0-0-0-3-3-3-3-5-5/10-10--|

B-part (pre-chorus)   1x

eb|--------------------------------------------|
bb|--------------------------------------------|
gb|--------------------------------------------|
db|--8-8-8-8---3-3-3-3-3---10-10-10-10---5--3--|
ab|--8-8-8-8---3-3-3-3-3---10-10-10-10---5--3--|
db|--8-8-8-8---3-3-3-3-3---10-10-10-10---5--3--|

C-Part (Chorus) 2x

eb|-----------------------------------------|
bb|-----------------------------------------|
gb|-----------------------------------------|
db|-----------------------------------------|
ab|--0-0-0-0-3-3-8-8-8-8-8-8-11-11-14-14----|
db|--0-0-0-0-3-3-8-8-8-8-8-8-11-11-14-14----|

C'-Part (Chorus-End) 2x             Not Broken...
eb|---------------------------------|-----|
bb|---------------------------------|-----|
gb|---------------------------------|-----|
db|---------------------------------|-----|
ab|--0-0-0-0--8--3--7-7-7-7--10--5--|--0--|
db|--0-0-0-0--8--3--7-7-7-7--10--5--|--0--|


A-part (intro)      2x
A'-Part(verse)      4x
B-part (preChorus)  1x
C'-part (chorus)    4x 


D-part   2x  ..We gotta dig in.. gas masks on... .
eb|-------------------------------------------------------|
bb|-------------------------------------------------------|
gb|-------------------------------------------------------|
db|-------------------------------------------------------|
ab|------------------------------------------------0-0-0--|
db|-3-3-3-3-0-0-0-0-3-3-3-3-0-0-0-0-3-3-3-3-0-0-0--0-0-0--|

E-part 3x   ..Is everyone afraid? You should be ashamed... 
eb|---------------------------------------------------|
bb|---------------------------------------------------|
gb|---------------------------------------------------|
db|---------------------------------------------------|
ab|---------------------------------------------------|
db|-12-12-12-12--15-15--10-10--8-8-8-8--10-10--11-11--|

F-part 3x ..Come on last call.    You should want it all!
eb|-----------------------------|-------------------------|
bb|-----------------------------|-------------------------|
gb|-----------------------------|-------------------------|
db|-----------------------------|-------------------------|
ab|--5--5-5-5--3--5--0-0-0--8---|--0-1-3/5----------------|
db|--5--5-5-5--3--5--0-0-0--8---|-5-----------------------|

C'-part (chorus) 6x
eb|---------------------------------|-----|
bb|---------------------------------|-----|
gb|---------------------------------|-----|
db|---------------------------------|-----|
ab|--0-0-0-0--8--3--7-7-7-7--10--5--|--0--|
db|--0-0-0-0--8--3--7-7-7-7--10--5--|--0--|

The End
            
Submit corrections

comments powered by Disqus
↑ Back to top | Smashing Pumpkins Tabs for Doomsday Clock. Lyrics for acoustic guitar and electric guitar. Tablatures and chords are parodies/interpretations of the original songs. You may use it for private study, scholarship, research or language learning purposes only