» » »

Smashing Pumpkins, Doomsday Clock Tabs (ver.2)

Artists:  A B C D E F G H I J K L M N O P Q R S T U V W X Y Z # 

Doomsday Clock Tabs (ver.2)

Smashing Pumpkins Tabs
 Rating:
4/5 (4 votes)
Doomsday Clock lessons Tabs too difficult? Try these video lessons and learn fast
1
                --title: doomsday clock
--release: zeitgeist
--last updated: 07.05.07


--tuning: Db Gb B E Ab Db



--INTRO/VERSE
|-------------------------------------------------------------------|
|-------------------------------------------------------------------|
|-------------------------------------------------------------------|
|-------------------------------------------------------------------|
|-------------------------------------------------------------------|
|-0-0-0-0-0-0-0-0-0-0-0-0-0-0-0-0-3-3-3-3-3-3-3-3-/5-5-5-5-/9-9-9-9-|

 Guitar 2 [0:15 - 0:25]
|-----------------------------------------------------------0-------|
|-----------------------------------------------------------0-------|
|-------------------------------------------------------------------|
|-------------------------------------------------------------------|
|-------------------------------------------------------------------|
|-0-------------------------------3----------------2----------------|

|---------------------------------17gr14~~\~~\~~\~~\\\\-------------|
|-------------------------------------------------------------------|
|-------------------------------------------------------------------|
|-------------------------------------------------------------------|
|-------------------------------------------------------------------|
|-0-----------------------------------------------------------------|


--PRECHORUS
|-0-----0-----0-----0----------|
|-0-----0-----0-----0----------|
|-0-----12----11----6----------|
|-10----x-----12----7----------|
|-10----10----12----7----------|
|-8-----0-----10----5----(12)\-|

|------------------------------------------------------------------------------|
|------------------------------------------------------------------------------|
|------------------------------------------------------------------11-11-11-11-|
|-------------------5-5-5-5/10-10-10-10-10-10-10-10-10-13-13-13-13-11-11-11-11-|
|-------------------5-5-5-5/10-10-10-10-10-10-10-10-10-13-13-13-13-9--9--9--9--|
|-0-0-0-0-0-0-0-0-0h3-3-3-3/8--8--8--8--8--8--8--8--8--11-11-11-11-------------|

|------------------------------------------------------------------------------|
|------------------------------------------------------------------------------|
|------------------------------------------------------------------12-12-12-12-|
|-------------------5-5-5-5/10-10-10-10-10-10-10-10-10-13-13-13-13-------------|
|-------------------5-5-5-5/10-10-10-10-10-10-10-10-10-13-13-13-13-10-10-10-10-|
|-0-0-0-0-0-0-0-0-0h3-3-3-3/8--8--8--8--8--8--8--8--8--11-11-11-11-------------|


--CHORUS
|----------------------------------------------------------|
|----------------------------------------------------------|
|----------------------------------------------------------|
|-------------------10----5---9-9-9-9-9-9-9-9-9-12-----7---|
|-------------------10----5---9-9-9-9-9-9-9-9-9-12-----7---|
|-0-0-0-0-0-0-0-0-0-8---0-3---7-7-7-7-7-7-7-7-7-10---0-5---|


--VERSE
|-------------------------------------------------------------------|
|-------------------------------------------------------------------|
|-------------------------------------------------------------------|
|-------------------------------------------------------------------|
|-------------------------------------------------------------------|
|-0-0-0-0-0-0-0-0-0-0-0-0-0-0-0-0-3-3-3-3-3-3-3-3-/5-5-5-5-/9-9-9-9-|

 Guitar 2 [1:23 - 1:33]
|-----------------------------------------------------------0-------|
|-----------------------------------------------------------0-------|
|-------------------------------------------------------------------|
|-------------------------------------------------------------------|
|-------------------------------------------------------------------|
|-0-------------------------------3----------------2----------------|

|---------------------------------17~\14~/16~\13~\~~\~~\~~\~~\\\\---|
|-------------------------------------------------------------------|
|-------------------------------------------------------------------|
|-------------------------------------------------------------------|
|-------------------------------------------------------------------|
|-0-----------------------------------------------------------------|


--PRECHORUS
|-0-----0-----0-----0----------|
|-0-----0-----0-----0----------|
|-0-----12----11----6----------|
|-10----x-----12----7----------|
|-10----10----12----7----------|
|-8-----0-----10----5----(12)\-|


--CHORUS
|----------------------------------------------------------|
|----------------------------------------------------------|
|----------------------------------------------------------|
|-------------------10----5---9-9-9-9-9-9-9-9-9-12-----7---|
|-------------------10----5---9-9-9-9-9-9-9-9-9-12-----7---|
|-0-0-0-0-0-0-0-0-0-8---0-3---7-7-7-7-7-7-7-7-7-10---0-5---|


--INTERLUDE
|-----------------------------------------|
|-----------------------------------------|
|-----------------------------------------|
|-----------------------------------------|
|-----------------------------------------|
|-*1.75*-*1.75*-*2*-*2.5*-*3*-*4*-*5*-*7*-|

|---------------------------------|
|---------------------------------|
|---------------------------------|
|---------------------------------|
|---------------------------------|
|-0-3-3-3-3-3-3-3-3-0-0-0-0-0-0-0-|
  ...............................

|---------------------------------|
|---------------------------------|
|---------------------------------|
|---------------------------------|
|-----------------------------2-2-|
|-0-3-3-3-3-3-3-3-3-0-0-0-4-4-----|
  ...............................

|---------------------------------|
|---------------------------------|
|---------------------------------|
|---------------------------------|
|---------------------------------|
|-0-3-3-3-3-3-3-3-3-0-0-0-0-0-0-0-|
  ...............................


--BRIDGE
|-----------------------------------------------------------------------------------------|
|-----------------------------------------------------------------------------------------|
|-----------------------------------------------------------------------------------------|
|-----------------------------------------------------------------------------------------|
|-----------------------------------------------------------------------------------------|
|-12-12-12-12-12-12-12-12-0-15-15-15-0-10-10-10-8-8-8-8-8-8-8-8-0-10-10-10-10h11-11-11-11h|

|-------------------------------------------------------------------------------------------------------|
|-------------------------------------------------------------------------------------------------------|
|-------------------------5----------------------------5----------------------------5----6----7----8----|
|-------------------------5----------------------------5----------------------------5----6----7----8----|
|-------------------------3----------------------------3----------------------------3----4----5----6----|
|-5-5-5-5-5-3-3-5-5-0-0-0------5-5-5-5-5-3-3-5-5-0-0-0------5-5-5-5-5-3-3-5-5-0-0-0-3----4----5----6----|


--CHORUS
|----------------------------------------------------------|
|----------------------------------------------------------|
|----------------------------------------------------------|
|-------------------10----5---9-9-9-9-9-9-9-9-9-12-----7---|
|-------------------10----5---9-9-9-9-9-9-9-9-9-12-----7---|
|-0-0-0-0-0-0-0-0-0-8---0-3---7-7-7-7-7-7-7-7-7-10---0-5---|

|----------|
|----------|
|-9\\\-----|
|-9\\\-----|
|-7\\\-----|
|-0\\\-----|





b   - bend
r   - release
gb  - gradual bend
gr  - gradual release
h   - hammer on
p   - pull off
T   - trill
W   - whammy bar dive
\   - slide down
/   - slide up
x   - mute
X\  - pick slide
~~~ - vibrato
*7  - artificial harmonic
*7* - natural harmonic
... - palm mute
(0) - optional note
XXX - tremolo pick
alt - variation of riff
            
Submit corrections

comments powered by Disqus
↑ Back to top | Smashing Pumpkins Tabs for Doomsday Clock. Lyrics for acoustic guitar and electric guitar. 1 Tablatures and chords are parodies/interpretations of the original songs. You may use it for private study, scholarship, research or language learning purposes only