» » »

Doomsday Clock Bass tabs (ver.1)

Artists:  A B C D E F G H I J K L M N O P Q R S T U V W X Y Z # 

Doomsday Clock Bass tabs (ver.1)

Smashing Pumpkins
Rating:
0/5 (0 votes)

Hard to play? Try these video lessons and learn fast.
                -------------------------------------------------------------------------------
			 DOOMSDAY CLOCK - Smashing Pumpkins
-------------------------------------------------------------------------------



Tuning: CGCF


For convenience of reading, i have separated notes in double figures by commas. Also,
note that for most of the riffs and prolonged sections of notes, the notes are in triplets
it'll make it easier to play if you think of em like that. E.g the first riff can be 
like this:

F|--------------------------------------------------------|
C|--------------------------------------------------------|
G|--------------------------------------------------------|  x8
C|----1-111-111-111-11--4-444-44--6-666--10-11------------|

but that makes it quite confusing, so I haven't written it like that for the entirity of
tab. Listen to the start of the song CAREFULLY and you will be able to hear the
arranged like in the above tab. Now for the whole song:

Drum Intro


Main Riff
F|-------------------------------------------------|
C|-------------------------------------------------|
G|-------------------------------------------------|  x8
C|----111111111111--444444--6666--10-11------------|

Build Up
F|--------------------------------------------------------|
C|--------------------------------------------------------|  continued
G|--------------------------------------------------------|    below
C|---9999999999999999--1111111111111111-------------------|

----------------------------------------------------------|
----------------------------------------------------------|
----------------------------------------------------------|
---11,11,11,11,11,11,11,11,11,11,11,11,11,11,11,11--6--4--|

Chorus
F|--------------------------------------------------|
C|--------------------------------------------------|
G|--------------------------------------------------|
C|---1111111/444/99999999/12,12,12,12/15,15,15,15---|

F|--------------------------------------------------|
C|--------------------------------------------------|
G|--------------------------------------------------|
C|---1111111/444/99999999/12,12,12,12/4444----------|

F|--------------------------------------------------|
C|--------------------------------------------------|
G|--------------------------------------------------| x2
C|---1111111-99-66-88888888-11,11-66----------------|

F|--------------------------------------------------|
C|--------------------------------------------------|
G|--------------------------------------------------| x2
C|---1111111-99-66-88888888-11,11-6-----------------|

Main Riff
F|-------------------------------------------------|
C|-------------------------------------------------|
G|-------------------------------------------------|  x6
C|----111111111111--444444--6666--10-11------------|

Build Up
F|--------------------------------------------------------|
C|--------------------------------------------------------|  continued
G|--------------------------------------------------------|    below
C|---9999999999999999--1111111111111111-------------------|

----------------------------------------------------------|
----------------------------------------------------------|
----------------------------------------------------------|
---11,11,11,11,11,11,11,11,11,11,11,11,11,11,11,11--6--6--|

Chorus
F|--------------------------------------------------|
C|--------------------------------------------------|
G|--------------------------------------------------| x3
C|---1111111-99-66-88888888-11,11-66----------------|

F|--------------------------------------------------|
C|--------------------------------------------------|
G|--------------------------------------------------|
C|---1111111-99-66-88888888-11,11-6----11111111-----|

Break Down 1
F|---------------------------------------------------------|
C|---------------------------------------------------------|
G|---------------------------------------------------------| x2
C|----4444444-1111111-4444444-111-66-77-4444444-1111111-111|

Break Down 2                                             _____
F|---------------------------------------------------------  -- |
C|---------------------------------------------------------  -- |
G|---------------------------------------------------------  -- |
C|----13,13,13,13,13,13,13,13-16,16,16,16-11,11,11,11---------- |    \
                                                                > x3
                                                               /
---------------------------------------------------------|    |
---------------------------------------------------------|    |
---------------------------------------------------------|    |
--99999999-11,11,11,11=12,12,12,12-----------------------|____|

F|--------------------------------------------------|
C|--------------------------------------------------|
G|--------------------------------------------------|
C|---1111111-99-66-88888888-11,11-6----11111111-----|


F|---------------------------------------------------------------|
C|---------------------------------------------------------------|
G|------------------3-----------------3-----------------3--3-4-5-|
C|----6666-4h6-6-1-1----6666-4h6-6-1111---6666-4h6-6-1-1---------|

And back to Chorus
F|--------------------------------------------------|
C|--------------------------------------------------|
G|--------------------------------------------------| x5
C|---1111111-99-66-88888888-11,11-66----------------|

F|--------------------------------------------------|
C|--------------------------------------------------|
G|--------------------------------------------------|
C|---1111111-99-66-88888888-11,11-66--1-------------|

End!
            
Hard to play? Try these video lessons and learn fast. | Correct




comments powered by Disqus
↑ Back to top | Tablatures and chords are parodies/interpretations of the original songs. You may use it for private study, scholarship, research or language learning purposes only