» » »

Smashing Pumpkins, Doomsday Clock Tabs (ver.1)

Artists:  A B C D E F G H I J K L M N O P Q R S T U V W X Y Z # 

Doomsday Clock Tabs (ver.1)

Smashing Pumpkins Tabs
 Rating:
4/5 (4 votes)
Doomsday Clock lessons Tabs too difficult? Try these video lessons and learn fast
1
                Intro:

|-----------------------------------------------------------------------------|
|-----------------------------------------------------------------------------|
|-----------------------------------------------------------------------------|
|-----------------------------------------------------------------------------|
|-----------------------------------------------------------------------------|
|----000000000000000--3333333--5555 --9-10------------------------------------|


|-----------------------------------------------------------------------------|
|-----------------------------------------------------------------------------|
|-----------------------------------------------------------------------------|
|-----------------------------------------------------------------------------|
|-----------------------------------------------------------------------------|
|----000000000000000--3333333--5555 --9-10------------------------------------|


|-----------------------------------------------------------------------------|
|-----------------------------------------------------------------------------|
|-----------------------------------------------------------------------------|
|-----------------------------------------------------------------------------|
|-----------------------------------------------------------------------------|
|----000000000000000--3333333--5555 --9-10------------------------------------|


|-----------------------------------------------------------------------------|
|-----------------------------------------------------------------------------|
|-----------------------------------------------------------------------------|
|-----------------------------------------------------------------------------|
|-----------------------------------------------------------------------------|
|----000000000000000--3333333--5555 --9-10------------------------------------|

Verse:

	Is everyone afraid? Is everyone ashamed?

|-----------------------------------------------------------------------------|
|-----------------------------------------------------------------------------|
|-----------------------------------------------------------------------------|
|-----------------------------------------------------------------------------|
|-----------------------------------------------------------------------------|
|----000000000000000--3333333--5555 --9-10------------------------------------|


	They're running towards their holes, to find out

|-----------------------------------------------------------------------------|
|-----------------------------------------------------------------------------|
|-----------------------------------------------------------------------------|
|-----------------------------------------------------------------------------|
|-----------------------------------------------------------------------------|
|----000000000000000--3333333--5555 --9-10------------------------------------|


	Apocalyptic means, are lost amongst our dead

|-----------------------------------------------------------------------------|
|-----------------------------------------------------------------------------|
|-----------------------------------------------------------------------------|
|-----------------------------------------------------------------------------|
|-----------------------------------------------------------------------------|
|----000000000000000--3333333--5555 --9-10------------------------------------|

A message to our friends, to get out

|-----------------------------------------------------------------------------|
|-----------------------------------------------------------------------------|
|-----------------------------------------------------------------------------|
|-----------------------------------------------------------------------------|
|-----------------------------------------------------------------------------|
|----000000000000000--3333333--5555 --9-10------------------------------------|


	There's wages on this fear. Oh so clear. Depends on what you'll pay to hear

|-----------------------------------------------------------------------------|
|-----------------------------------------------------------------------------|
|-----------------------------------------------------------------------------|
|-----------------------------------------------------------------------------|
|-----------------------------------------------------------------------------|
|---8--3--12--5--3------hit it each note multiple times-----------------------|


Bridge: 

				   They're bound to kill us all

|-----------------------------------------------------------------------------|
|-----------------------------------------------------------------------------|
|-----------------------------------------------------------------------------|
|-----------------------------------------------------------------------------|
|-----------------------------------------------------------------------------|
|---0000000/3333/88888-88888/11  11/141414------------------------------------|


	In white-washed halls.    Their jackals lick their paws

|-----------------------------------------------------------------------------|
|-----------------------------------------------------------------------------|
|-----------------------------------------------------------------------------|
|-----------------------------------------------------------------------------|
|-----------------------------------------------------------------------------|
|---0000000/3333/88888-88888/11  11/141414------------------------------------|

Chorus:

	Please don't stop, It's lonely at the top

|-----------------------------------------------------------------------------|
|-----------------------------------------------------------------------------|
|-----------------------------------------------------------------------------|
|-----------------------------------------------------------------------------|
|--------------8--3--------------10--5----------------------------------------|
|---00000000---8--3---77777777---10--5----------------------------------------|


	These lonely days, When will they ever stop?


|-----------------------------------------------------------------------------|
|-----------------------------------------------------------------------------|
|-----------------------------------------------------------------------------|
|-----------------------------------------------------------------------------|
|--------------8--3--------------10--5----------------------------------------|
|---00000000---8--3---77777777---10--5----------------------------------------|


	This doomsday clock tickin' in my heart...Not broken

|-----------------------------------------------------------------------------|
|-----------------------------------------------------------------------------|
|-----------------------------------------------------------------------------|
|-----------------------------------------------------------------------------|
|--------------8--3--------------10--5----------------------------------------|
|---00000000---8--3---77777777---10--5----------------------------------------|


Verse 2:

|----------------------------------------------------------------------------|
|----------------------------------------------------------------------------|
|----------------------------------------------------------------------------|
|----------------------------------------------------------------------------|
|----------------------------------------------------------------------------|
|---00000000--3333--2222---9-10----------------------------------------------|


|----------------------------------------------------------------------------|
|----------------------------------------------------------------------------|
|----------------------------------------------------------------------------|
|----------------------------------------------------------------------------|
|----------------------------------------------------------------------------|
|---00000000--3333--2222---9-10----------------------------------------------|


	  I love life everyday, in each and every way

|----------------------------------------------------------------------------|
|----------------------------------------------------------------------------|
|----------------------------------------------------------------------------|
|----------------------------------------------------------------------------|
|----------------------------------------------------------------------------|
|----000000000000000--3333333--5555 --9-10-----------------------------------|

 

	  Kafka would be proud, to find out

|----------------------------------------------------------------------------|
|----------------------------------------------------------------------------|
|----------------------------------------------------------------------------|
|----------------------------------------------------------------------------|
|----------------------------------------------------------------------------|
|----000000000000000--3333333--5555 --9-10-----------------------------------|


	 I'm certain of the end, it's the means that has me spooked

|----------------------------------------------------------------------------|
|----------------------------------------------------------------------------|
|----------------------------------------------------------------------------|
|----------------------------------------------------------------------------|
|----------------------------------------------------------------------------|
|----000000000000000--3333333--5555 --9-10-----------------------------------|


	  It takes an unknown truth to get out

|----------------------------------------------------------------------------|
|----------------------------------------------------------------------------|
|----------------------------------------------------------------------------|
|----------------------------------------------------------------------------|
|----------------------------------------------------------------------------|
|----000000000000000--3333333--5555 --9-10-----------------------------------|


	I'm guessing that I'm born free, silly me. I was meant to beg from my knees

|----------------------------------------------------------------------------|
|----------------------------------------------------------------------------|
|----------------------------------------------------------------------------|
|----------------------------------------------------------------------------|
|----------------------------------------------------------------------------|
|---8--3--12--5--3------hit it each note multiple times----------------------|


Chorus 2:

Please don't stop, It's lonely at the top

|----------------------------------------------------------------------------|
|----------------------------------------------------------------------------|
|----------------------------------------------------------------------------|
|----------------------------------------------------------------------------|
|--------------8--3--------------10--5---------------------------------------|
|---00000000---8--3---77777777---10--5---------------------------------------|


These lonely days, When will they ever stop?

|----------------------------------------------------------------------------|
|----------------------------------------------------------------------------|
|----------------------------------------------------------------------------|
|----------------------------------------------------------------------------|
|--------------8--3--------------10--5---------------------------------------|
|---00000000---8--3---77777777---10--5---------------------------------------|


This doomsday clock, ticking in my heart

|----------------------------------------------------------------------------|
|----------------------------------------------------------------------------|
|----------------------------------------------------------------------------|
|----------------------------------------------------------------------------|
|--------------8--3--------------10--5---------------------------------------|
|---00000000---8--3---77777777---10--5---------------------------------------|


These lonely days, when will they ever stop?

|----------------------------------------------------------------------------|
|----------------------------------------------------------------------------|
|----------------------------------------------------------------------------|
|----------------------------------------------------------------------------|
|--------------8--3--------------10--5---------------------------------------|
|---00000000---8--3---77777777---10--5---------------------------------------|

 

Middle:

			We gotta dig in. 			Gas masks on

|----------------------------------------------------------------------------|
|----------------------------------------------------------------------------|
|----------------------------------------------------------------------------|
|----------------------------------------------------------------------------|
|----------------------------------------------------------------------------|
|---3333333333333--00000000000000000--------3333333333333--00000000000000000-|  
(slightly muted)


			Wait in the sunshine, 			all bug-eyed

|----------------------------------------------------------------------------|
|----------------------------------------------------------------------------|
|----------------------------------------------------------------------------|
|----------------------------------------------------------------------------|
|----------------------------------------------------------------------------|
|---3333333333333--00000000000000000--------0000000000000--00000000000000000-|  
(slightly muted)


			If this is living? 			Sakes alive!

|----------------------------------------------------------------------------|
|----------------------------------------------------------------------------|
|----------------------------------------------------------------------------|
|----------------------------------------------------------------------------|
|----------------------------------------------------------------------------|
|---3333333333333--00000000000000000--------3333333333333--00000000000000000-|  
(slightly muted)


			Well then they can't win, No one survives

|----------------------------------------------------------------------------|
|----------------------------------------------------------------------------|
|----------------------------------------------------------------------------|
|----------------------------------------------------------------------------|
|----------------------------------------------------------------------------|
|---3333333333333--00000000000000000--------0000000000000--00000000000000000-|  
(slightly muted)



		Is everyone afraid? You should be ashamed

|----------------------------------------------------------------------------|
|----------------------------------------------------------------------------|
|-----------------------------------multiple-strokes-on-each-fret------------|
|----------------------------------------------------------------------------|
|----------------------------------------------------------------------------|
|---12-----15-----10-----8-----10-----11-------------------------------------|


		Apocalyptic screams, mean nothing to the dead

|----------------------------------------------------------------------------|
|----------------------------------------------------------------------------|
|-----------------------------------multiple-strokes-on-each-fret------------|
|----------------------------------------------------------------------------|
|----------------------------------------------------------------------------|
|---12-----15-----10-----8-----10-----11-------------------------------------|


		Kissing that ol' sun, to know all there is


|----------------------------------------------------------------------------|
|----------------------------------------------------------------------------|
|-----------------------------------multiple-strokes-on-each-fret------------|
|----------------------------------------------------------------------------|
|----------------------------------------------------------------------------|
|---12-----15-----10-----8-----10-----11-------------------------------------|

 


				Come on, 			last call!

|----------------------------------------------------------------------------|
|----------------------------------------------------------------------------|
|----------------------------------------------------------------------------|
|----------------------------------------------------------------------------|
|--------------------------1-1-----------------------------1-1---------------|
|----5555-5p3-3-5p3-3-000------------5555-5p3-3-5p3-3-000--------------------|


				You should want it all!

|----------------------------------------------------------------------------|
|----------------------------------------------------------------------------|
|----------------------------------------------------------------------------|
|----------------------------------------------------------------------------|
|--------------------------1----2----3---4-----------------------------------|
|----5555-5p3-3-5p3-3-000----------------------------------------------------|


Chorus 3:

		Ah, it's lonely at the top

|----------------------------------------------------------------------------|
|----------------------------------------------------------------------------|
|----------------------------------------------------------------------------|
|----------------------------------------------------------------------------|
|--------------8--3--------------10--5---------------------------------------|
|---00000000---8--3---77777777---10--5---------------------------------------|


		These lonely days when will they ever stop?

|----------------------------------------------------------------------------|
|----------------------------------------------------------------------------|
|----------------------------------------------------------------------------|
|----------------------------------------------------------------------------|
|--------------8--3--------------10--5---------------------------------------|
|---00000000---8--3---77777777---10--5---------------------------------------|


		This doomsday clock, Ticking in my heart

|----------------------------------------------------------------------------|
|----------------------------------------------------------------------------|
|----------------------------------------------------------------------------|
|----------------------------------------------------------------------------|
|--------------8--3--------------10--5---------------------------------------|
|---00000000---8--3---77777777---10--5---------------------------------------|


		These lonely days, when will they ever stop?

|----------------------------------------------------------------------------|
|----------------------------------------------------------------------------|
|----------------------------------------------------------------------------|
|----------------------------------------------------------------------------|
|--------------8--3--------------10--5---------------------------------------|
|---00000000---8--3---77777777---10--5---------------------------------------|


				This ticking in my heart

|----------------------------------------------------------------------------|
|----------------------------------------------------------------------------|
|----------------------------------------------------------------------------|
|----------------------------------------------------------------------------|
|--------------8--3--------------10--5---------------------------------------|
|---00000000---8--3---77777777---10--5---------------------------------------|


				Is everyone afraid?

|----------------------------------------------------------------------------|
|----------------------------------------------------------------------------|
|----------------------------------------------------------------------------|
|----------------------------------------------------------------------------|
|--------------8--3--------------10--5---------------------------------------|
|---00000000---8--3---77777777---10--5---------------------------------------|
            
Submit corrections

comments powered by Disqus
↑ Back to top | Smashing Pumpkins Tabs for Doomsday Clock. Lyrics for acoustic guitar and electric guitar. 1 Tablatures and chords are parodies/interpretations of the original songs. You may use it for private study, scholarship, research or language learning purposes only