» » »

Disarm Tabs (ver.2)

Artists:  A B C D E F G H I J K L M N O P Q R S T U V W X Y Z # 

Disarm Tabs (ver.2)

Smashing Pumpkins
Rating:
0/5 (0 votes)

Hard to play? Try these video lessons and learn fast.
                (Complete)
v strum down
^strum up
beautiful world

-|-----------------------------------------------------------|----------------
-|-0-0--------------------------------------------------0----|----------------
-|-000--0-0-0-0-0---------0-0-0-----------------0--0-0-00-0--|----------------
-|-222--2-2-2-2-2-5-5-5-5-5-5-5-555-5-5-5-5-5-5-5--5-5-5500--|----------------
-|-222--2-2-2-2-2-3-3-3-3-3-3-3-335-5-5-5-5-5-5-5--5-5-5520--|----------------
-|-000------------0-0-0-0-0-0-0-003-3-3-3-3-3-3-3--3-3-3332--|----------------
   v^v  v v v v v v v v v v v v v^v v v v v v v v  ^ v v^v^                   

-|------------------------------------------------------------|--------|----|-
-|-------------------------------------------------------0----|--------|----|-
-|-0-0-0-0-0-0-0-0---------0-0-0-----------------0--0-0-00-0--|--------|----|-
-|-2-2-2-2-2-2-2-2-5-5-5-5-5-5-5-555-5-5-5-5-5-5-5--5-5-5500--|-5------|-55-|-
-|-2-2-2-2-2-2-2-2-3-3-3-3-3-3-3-335-5-5-5-5-5-5-5--5-5-5520--|-5--16x-|-55-|-
-|-----------------0-0-0-0-0-0-0-003-3-3-3-3-3-3-3--3-3-3332--|-3------|-33-|-
   v v v verse                     before prechorus do this instead^          

-|------|----|-------|----|-----|----|-----|----|--------------------------|--
-|------|----|-------|----|-----|----|-----|----|--------------------------|--
-|0-----|-55-|-5-----|-55-|-0---|-00-|-2---|-22-|--------------------------|--
-|5-16x-|-55-|-5-15x-|-55-|-2-7x|-22-|-0-7x|-00-|--------------------------|--
-|3-----|-33-|-3-----|-33-|-2---|-22-|-0---|-00-|--------------------------|--
-|0-----|-00-|-0-----|-00-|-----|----|-----|----|--------------------------|--
  prechorus   chorus   v^                        prechorus & chorus 2x        

-|---------|-------|----|-0------0-------|-000------0-------|----|------------
-|---------|-------|----|-0--3---0-3-----|-000--3---0-3-----|-00-|------------
-|---------|-5-----|-55-|-0--2-2-0---2---|-000--2-2-0---2---|-00-|------------
-|---------|-5-15x-|-55-|-2--0-0-2-----0-|-222--0-0-2-----0-|-22-|------------
-|---------|-3-----|-33-|-2--0-0-2-------|-222--0-0-2-------|-22-|------------
-|---------|-0-----|-00-|-0--------------|-000--------------|-00-|------------
   chorus    v       v^   v  ^ ^ ^ ^ v ^            viola          pre chorus 

----|-------|-|-------------|------|----|------|----|------|----|---00----|---
----|-------|-|-------------|------|----|------|----|------|----|---00----|---
----|-------|-|-------------|-5----|-55-|--2---|-22-|-0----|-00-|---00----|---
----|-------|-|-------------|-5-15x|-55-|--0-7x|-00-|-2-7x-|-22-|---22----|---
----|-------|-|-------------|-3----|-33-|--0---|-00-|-2----|-22-|---22----|---
----|-------|-|-------------|-0----|-00-|------|----|------|----|---00----|---
 2x   verse      chorus     When:I send this smile over you     end instead
            
Hard to play? Try these video lessons and learn fast. | Correct




comments powered by Disqus
↑ Back to top | Tablatures and chords are parodies/interpretations of the original songs. You may use it for private study, scholarship, research or language learning purposes only