>
 >
Disarm 3

Disarm 3 Guitar Tabs

Smashing Pumpkins - Disarm 3 chords, tabs, tablatures, lyrics

Guitar lessons | Add/correct | Request | Top 50 tabs Artists:  A B C D E F G H I J K L M N O P Q R S T U V W X Y Z 0-9

Disarm 3 Guitar Tabs – Smashing Pumpkins

CD, Sheet music, Poster

Do you like Disarm 3? Share with your friends now
Bass TabsBass Tabs v2ChordsChords v2Chords v3Chords v4TabsTabs v2Tabs v3Tabs v4Ukulele
-------------------------------------------------------------------------------
                                Disarm (Live)  - Smashing Pumpkins
-------------------------------------------------------------------------------

Tuning:Standard 



Disarm You
|------------------------------------------|
|------------------------------------------|
|------------------------------------------|
|--2---2----0----------2---2----0----------|x2
|--2---3br--2-----0----2---3br--2-----0----|
|--0---0----3~----2~---0---0----3~----2~---|
oh He is burnt
|---------------------------------------------------------------------------|
|---------------------------------------------------------1-1-1-1-1-1-1-1---|
|-------------------------------------------------------------------------3b|
|-2-2-2-2--2-2-2-2--0-0-0-0-0-0-0-0-0---2-2-2-2--2-2-2-2--0-0-0-0-0-0-0-0---|
|-2-2-2-2--3-3-3-3--2-2-2-2-2-2-2-2-0---2-2-2-2--3-3-3-3--2-2-2-2-2-2-2-2---|
|-0-0-0-0--0-0-0-0--3-3-3-3-3-3-3-3-2~--0-0-0-0--0-0-0-0--3-3-3-3-3-3-3-3---|
 I used to be a little
|---------------------------------------------------------------------------|
|---------------------------------------------------------------------------|
|---------------------------------------------------------------------------|
|-2-2-2-2--2-2-2-2--0-0-0-0-0-0-0-0--222~-2-2-2-2--2-2-2-2--0-0-0-0-0-0-0-0-|
|-2-2-2-2--3-3-3-3--2-2-2-2-2-2-2-2--222~-2-2-2-2--3-3-3-3--2-2-2-2-2-2-2-2-|
|-0-0-0-0--0-0-0-0--3-3-3-3-3-3-3-3--000~-0-0-0-0--0-0-0-0--3-3-3-3-3-3-3-3-|
What's A Boy Supposed Do
|---------------------------------------------------------------|
|---------------------------------------------------------------|
|---------------------------------------------------------------|
|-222~-2-2-2-2--2-2-2-2--0-0-0-0-0-0-0-0------------------------|
|-222~-2-2-2-2--3-3-3-3--2-2-2-2-2-2-2-2------------------------|
|-000~-0-0-0-0--0-0-0-0--3-3-3-3-3-3-3-3------------------------|

|---------------------------------------------------------------|
|---------00--2b--2--00---------00--2b--2-----------------------|
|---------00--3b--3--00---------00--3b--3--0-0-0-0-0-0-0-0------|
|--2b--2--00--0---0--00--2b--2--00--0---0--2-2-2-2-2-2-2-2------|
|--2b--2--00---------00--2b--2--00---------3-3-3-3-3-3-3-3------|
|--0---0-----------------0---0----------------------------------|

|---------------------------------------------------------------|
|---------------------------------------------------------------|
|--/13br-12h13br12-9--9h12-/13br-12h13br12-9---12~--------------|
|-------------------------------------------------11br~-11br~---|
|---------------------------------------------------------------|
|---------------------------------------------------------------|
Disarm You With A Smile
|---------------------------------------------------------------|
|---------------------------------------------------------------|
|---------------------------------------------------------------|
|-2-2-2-2-2-2-2-2--2-2-2-2-2-2-2-2--0-0-0-0-0-0--0--0--0-0-0-0--|
|-2-2-2-2-2-2-2-2--3-3-3-3-3-3-3-3--2-2-2-2-2-2--2--2--0-0-0-0--|
|-0-0-0-0-0-0-0-0--0-0-0-0-0-0-0-0--3-3-3-3-3-3--3--3--2-2-2-2--|
To Weather In 
|---------------------------------------------------------------|
|---------------------------------------------------------------|
|---------------------------------------------------------------|
|-2-2-2-2-2-2-2-2--2-2-2-2-2-2-2-2--0-0-0-0-0-0--0--0--0-0-0-0--|
|-2-2-2-2-2-2-2-2--3-3-3-3-3-3-3-3--2-2-2-2-2-2--2--2--0-0-0-0--|
|-0-0-0-0-0-0-0-0--0-0-0-0-0-0-0-0--3-3-3-3-3-3--3--3--2-2-2-2--|
Oh He is burnt
|----------------------------------------------------------------------------|
|----------------------------------------------------------------------------|
|----------------------------------------------------------------0-0-0-0-0-0-|
|-2-2-2-2-2-2-2-2--2-2-2-2-2-2-2-2--0-0-0-0-0-0--0--0--0-0-0-0-0-2-2-2-2-2-2-|
|-2-2-2-2-2-2-2-2--3-3-3-3-3-3-3-3--2-2-2-2-2-2--2--2--0-0-0-0-0-3-3-3-3-3-3-|
|-0-0-0-0-0-0-0-0--0-0-0-0-0-0-0-0--3-3-3-3-3-3--3--3--2-2-2-2-2-------------|
I Used To Be A Little Boy
|------------------------------------------------------------|
|-------------------------------------------1-1-1-1-1-1-1-1--|
|-0-0-0-0-0-0-------------------------------0-0-0-0-0-0-0-0--|
|-2-2-2-2-2-2--2-2-2-2-2-2--2-2-2-2-2-2--0--2-2-2-2-2-2-2-2--|
|-3-3-3-3-3-3--2-2-2-2-2-2--3-3-3-3-3-3--0--3-3-3-3-3-3-3-3--|
|--------------0-0-0-0-0-0--0-0-0-0-0-0----------------------|
Killer in me 
|------------------------------------------------------------|
|------------------------------1-1-1-1-1-1-1-1---------------|
|------------------------------0-0-0-0-0-0-0-0---------------|
|-2-2-2-2-2-2--2-2-2-2-2-2--0--2-2-2-2-2-2-2-2---------------|
|-2-2-2-2-2-2--3-3-3-3-3-3--0--3-3-3-3-3-3-3-3---------------|
|-0-0-0-0-0-0--0-0-0-0-0-0-----------------------------------|
Killer In Me
|-----------------------------------------------------------------------------|
|-----------------------------------------------------------------------------|
|-----------------------------------------------------------------------------|
|-2-2-2-2-2-2--2-2-2-2-2-2--0-0-0-0-0-0--2-2-2-2-2-2--2-2-2-2-2-2-0-0-0-0-0-0-|
|-2-2-2-2-2-2--3-3-3-3-3-3--2-2-2-2-2-2--2-2-2-2-2-2--3-3-3-3-3-3-2-2-2-2-2-2-|
|-0-0-0-0-0-0--0-0-0-0-0-0--3-3-3-3-3-3--0-0-0-0-0-0--0-0-0-0-0-0-3-3-3-3-3-3-|

Killer In Me
|------------------------------------------------------------|
|------------------------------------------------------------|
|------------------------------------------------------------|
|-2-2-2-2-2-2--2-2-2-2-2-2--0-0-0-0-0-0-0--0-0---------------|
|-2-2-2-2-2-2--3-3-3-3-3-3--2-2-2-2-2-2-2--2-0---------------|
|-0-0-0-0-0-0--0-0-0-0-0-0--3-3-3-3-3-3-3--3-2---------------|

|------------------------------------------------------------|
|-8-8h9-10-12--12-10-12-15--15-15--15-15-15h17---------------|
|------0-----0---------0------0---0--0--0--0-----------------|
|------------------------------------------------------------|
|------------------------------------------------------------|
|------------------------------------------------------------|

|------------------------------------------------------------------------------|
|------------------------------------------------------------------------------|
|------------------------------------------------------------------------------|
|-2-2-2-2-2-2--2-2-2-2-2-2--0-0-0-0-0-0--2-2-2-2-2-2--2-2-2-2-2-2--0-0-0-0-0-0-|
|-2-2-2-2-2-2--3-3-3-3-3-3--2-2-2-2-2-2--2-2-2-2-2-2--3-3-3-3-3-3--2-2-2-2-2-2-|
|-0-0-0-0-0-0--0-0-0-0-0-0--3-3-3-3-3-3--0-0-0-0-0-0--0-0-0-0-0-0--3-3-3-3-3-3-|

|------------------------------------------------------------|
|-8-8h9-10-12--12-10-12-15--15-15--15-15-15/17-15------------|
|------0------0--------0------0--0---0--0--0-----------------|
|------------------------------------------------------------|
|------------------------------------------------------------|
|------------------------------------------------------------|

|------------------------------------------------------------|
|------------------------------------------------------------|
|------------------------------------------------------------|
|-2-2-2-2-2-2--2-2-2-2-2-2--0-0-0-0-0-0-0--0-0---------------|
|-2-2-2-2-2-2--3-3-3-3-3-3--2-2-2-2-2-2-2--0-0---------------|
|-0-0-0-0-0-0--0-0-0-0-0-0--3-3-3-3-3-3-3--3-2---------------|

|------------------------------------------------------------|
|--15--------------------------------------------------------|
|-----17-17-17-16-16-16-14-14--------------------------------|
|------------------------------------------------------------|
|-----------------------------14br-14br-14br-12/10-10-10-----|
|------------------------------------------------------------|

|------------------------------------------------------------|
|------------------------------------------1-1-1-------------|
|------------------------------------------------------------|
|-2-2-2-2-2-2--2-2-2-2-2-2--0-0-0-0-0-0-0--2-2-2-------------|
|-2-2-2-2-2-2--3-3-3-3-3-3--2-2-2-2-2-2-2--3-3-3-------------|
|-0-0-0-0-0-0--0-0-0-0-0-0--3-3-3-3-3-3-3--------------------|

|-------------------------------------------------------------------------------|
|-------------------------------------------------------------------------------|
|----------------------------------------------------9-7-77-7-5-55-4-44-4h5-7b--|
|--14p12-12-12-12\10-10-10\9-9--9-9-9brbr--7-5--5-5/----------------------------|
|-------------------------------------------------------------------------------|
|-------------------------------------------------------------------------------|


Please don't edit or claim this tab without e-mailing me first.
Would love to hear your comments and please rate.


************************************

| /   slide up
| \   slide down
| h   hammer-on
| p   pull-off
| ~   vibrato
| +   harmonic
| x   Mute note
| b   Bend
| pb  Pre-bend
| br  Bend release
| pbr Pre-bend release
| brb Bend release bend

************************************





Comments


Popular Smashing Pumpkins tabs & chords
East 1 Bass Tabs
Tales Of A Scorched Earth 3 Bass Tabs
Lightning Strikes 1 Chords
Pinwheels Chords
Here Is No Why 1 Tabs
Here Is No Why 3 Tabs
Infinite Sadness 1 Tabs
Let Me Give The World To You 1 Tabs
Dreaming Ukulele
Pug Ukulele


Song lyrics



↑ Back to top | Tablatures and chords are parodies/interpretations of the original songs. You may use it for private study, scholarship, research or language learning purposes only
© 2014 AZChords.com Contact us | Privacy policy | DMCA | Add/correct tabs | Request tabs | Top 50 tabs