» » »

Smashing Pumpkins, Disarm Tabs (ver.3)

Artists:  A B C D E F G H I J K L M N O P Q R S T U V W X Y Z # 

Disarm Tabs (ver.3)

Smashing Pumpkins Tabs
 Rating:
4/5 (4 votes)
Disarm lessons Tabs too difficult? Try these video lessons and learn fast
1
                TAbbled by Tiago alexandre nunes sousa (portugal)
Alfeizerão

its so easy i wope you enjoy'it (tiago sousa)
intro of disarm
  
E|--3-3-3----3---3---3---3---3--3---3---3---3---3---3---3--3-3-3---3---3---3---3---3---|
B|--3-3-3----3---3---3---3---3--3---3---3---3---3---3---3--3-3-3---3---3---3---3---3---|
G|-------------------------------------------------------------------------------------|
D|--2-2-2----2---2---2---2---2--2---2---2---2---2---2---2------------------------------|
A|--2-2-2----2---2---2---2---2--3---3---3---3---3---3---3--2-2-2---2---2---2---2---2---|
E|---------------------------------------------------------3-3-3---3---3---3---3---3---|

      
E|--3---3---3---3--3--3---3-3-3-|
B|--3---3---3---3--3--3---3-3-3-|
G|------------------------------|
D|------------------------2-2-2-|
A|------------------------2-2-2-|
E|--2---2---2---2--3--2---------|

The rest of the song i wrote in chords pro...
Enjoy

this is the rest of the song with chords pro...

Cadd9                     Em7    Dsus
    I used to be a little boy so old in my shoes
Cadd9                       Em7             Dsus
    And what I choose is my choice what's a boy supposed to do
Cadd9                                 Em7    Dsus
    The killer in me is the killer in you my love
Cadd9                         Em7   D   Em7   D   Cadd9
    I send this smile over to you

   Em7            Cadd9                        Dsus/F#
Disarm you with a smile and leave you like you left me here
   Em7          Cadd9    G                       Dsus/F#
To whither in denial the bitterness of one who's left alone
Em7    Cadd9    G      Dsus/F# 
    Oh ho he is burned
Em7    Cadd9    G      Dsus   Cadd9
    Oh ho he is burned burned burned

Cadd9                     Em7    Dsus
    I used to be a little boy so old in my shoes
Cadd9                       Em7            Dsus            Cadd9
    And what I choose is my voice what's a boy supposed to do
Cadd9                                 Em7    Dsus
    The killer in me is the killer in you my love
Cadd9                         Dsus
    I send this smile over to you

Dsus             Em7                 Cadd9
    The killer in me is the killer in you
                              Dsus
    I send this smile over to you
Dsus             Em7                 Cadd9
    The killer in me is the killer in you
                              Dsus
    I send this smile over to you
Dsus              Em7                 Cadd9
    The killer in me is the killer in you
                              D    Em7    D   Em7    D   Em7   Cadd9
    I send this smile over to you


Chord Formations:

Em7     022033 or 022030 (the first one sounds better)
Cadd9   x32033 or x32030 (either is fine)
G       320033
Dsus/F# 200033
Dsus    xx0233
D       xx0232

Tabbled by tiago sousa of Portugal nº 968479873
            
Submit corrections

comments powered by Disqus
↑ Back to top | Smashing Pumpkins Tabs for Disarm. Lyrics for acoustic guitar and electric guitar. 1 Tablatures and chords are parodies/interpretations of the original songs. You may use it for private study, scholarship, research or language learning purposes only