» » »

Smashing Pumpkins, Daughter Tabs (ver.2)

Artists:  A B C D E F G H I J K L M N O P Q R S T U V W X Y Z # 

Daughter Tabs (ver.2)

Smashing Pumpkins Tabs
Rating:
0/5 (0 votes)
Daughter lessons Tabs too difficult? Try these video lessons and learn fast
                Status: O


                         "Daughter"
                      Smashing Pumpkins

                              Brian Ebbitt


  

Riff-a:
e-----------6----------------6------|  |-12-|      
b--------7-----6---7-------7---7---7|  |-12-|          
g-----8----------8-------6-------6--|  |-12-|         
d--8-------------------8------------|  |-12-|        
a-----------------------------------|  |-12-|     
E-----------------------------------|2x|-12-|

Riff-a 3 times....then

Riff-b:
e--------12--4----------12-|
b--4-----12----0--2/4---12-|
g-----0--12-------------12-|
d--------12-------------12-| 
a--------------------------|
E--------------------------|

That is pretty much the whole song.

Lyrics:
(Bass only)
hands that offer 
hands that take  (harmonics)
someones daughter
takin me away     

(riff-b, then riff-a)

In the water 
just like a snake   (harmonics)
someones daughter 
heads alone 
sleep away

(Riff-A)
and you feel abused   
all your life 
your love and truth  (harmonics)

-these are cool, I was wondering if you could tab some Melonchollie
stuff, I already have Bullet in Butterfly wings and Here is no why
If you need anything feel free
---- End Forwarded Message
            

comments powered by Disqus
↑ Back to top | Smashing Pumpkins Tabs for Daughter. Lyrics for acoustic guitar and electric guitar. Tablatures and chords are parodies/interpretations of the original songs. You may use it for private study, scholarship, research or language learning purposes only