» » »

Smashing Pumpkins, Czarina Tabs (ver.1)

Artists:  A B C D E F G H I J K L M N O P Q R S T U V W X Y Z # 

Czarina Tabs (ver.1)

Smashing Pumpkins Tabs
 Rating:
4/5 (4 votes)
Czarina lessons Tabs too difficult? Try these video lessons and learn fast
1
                Tuning: Db Ab Db Gb Bb Eb


INTRO/VERSE
|---0-----0---------0-------0---0-|
|-----7-----7---7-----7---8-------|
|-------------7-------------------|
|-0-----0---------0-----0-----0---|
|---------------------------------|
|---------------------------------|


BRIDGE
|----------------------|
|-----0-------0--------|
|---0-------0----------|
|----------------------|
|----------------------|
|-2-----4-5-----/7~~~~-|


VERSE 2 - Same


BRIDGE 2
|-------------------------------------------------------------------|
|-----0-------0-------------3-------0--------------0-------0--------|
|---0-------0-------------2-------0--------------0-------0----------|
|-------------------------------------------------------------------|
|-------------------------------------------------------------------|
|-2-----4-5-----/7~~~~--0-----2-4-----5~~--5-4-2-----4-5-----/7~~~~-|


VERSE 3 - Same


BRIDGE 3 - Same as bridge 1


VERSE 4 - Same


BRIDGE 4
|---------------------------------0---|
|-----3-----3---------3-----0-----0---|
|---2-----2-----0---0-----0-----0-2---|
|-4-----2-----0---2-----0---------2---|
|-----------------------------2---0---|
|-------------------------------------|

|-------------------------------------------------------------------|
|-----0-------0-------------3-------0--------------0-------0--------|
|---0-------0-------------2-------0--------------0-------0----------|
|-------------------------------------------------------------------|
|-------------------------------------------------------------------|
|-2-----4-5-----/7~~~~--0-----2-4-----5~~--5-4-2-----4-5-----/7~~~~-|

|-2-|
|-3-|
|-4-|
|-4-|
|-2-|
|---|


VERSE 5 - Same


OUTRO
|-------------------------------------0-|
|-----3-----3---------3-----0-------7---|
|---2-----2-----0---0-----0-------7-----|
|-4-----2-----0---2-----0-------0-------|
|-----------------------------2---------|
|---------------------------------------|

End on
|-0-|
|-7-|
|-7-|
|-0-|
|-0-|
|-0-|
            
Submit corrections

comments powered by Disqus
↑ Back to top | Smashing Pumpkins Tabs for Czarina. Lyrics for acoustic guitar and electric guitar. 1 Tablatures and chords are parodies/interpretations of the original songs. You may use it for private study, scholarship, research or language learning purposes only