» » »

Crestfallen Tabs (ver.1)

Artists:  A B C D E F G H I J K L M N O P Q R S T U V W X Y Z # 

Crestfallen Tabs (ver.1)

Smashing Pumpkins
Rating:
0/5 (0 votes)

Hard to play? Try these video lessons and learn fast.
                (Live)
-------------------------------------------------------------------------------
-------------------------------------------------------------------------------

Tuning:1/2 Step Down

This tab played live in Germany in 1998.
Most of the adore 98' tour is played the same. I've put the time down to help out 
bit
Any questions feel free to e-mail me.

Seconds:
0.07  0.13    0.20    0.23         0.27

|-0~-------------0~-----------------0----|
|-1~-------------0~-----------------1----|
|-2~-------------2~-----------------2----|
|-2~----5h7------2~----10/12#/14----2----|
|-0~-------------0~-----------------0----|
|----------------------------------------|

0.29      0.33                             0.41                     0.47
------------------------------------------------------------------------|
12~/10-------------------------------------8----------------------------|
----------9/12-------------------------------9---9h12h9-9--7pb----------|
------------------9h10h9----7~-7/10-12-10---------------------------2/7-|
------------------------h10---------------------------------------------|
------------------------------------------------------------------------|

 0.50                1.00 ENTER DRUMS
|-----------------------------|
|-----------------------------|
|-12-12/14~~----14------------|
|-----------------------------|
|-----------------------------|
|-----------------------------|


JAMES:
|-----------------------------------------------------------------------------------------------|
|----------------------------------0-- ---0-----------------------------------------------------|
|-----4h5--4h5--4h5h4-----4-------0--%---0-----------------4h5--4h5/7~/5-4~-------5--7---9--7~--|
|----------------------------7---3-----2-----------------------------------7--5~----------------|
|-----------------------------------------------------------------------------------------------|
|-----------------------------------------------------------------------------------------------|

BILLY:
     Am                       F        Em                Am                  F
|------------------------------1-1-1-1-1--------0-----------------------------1-1-1-----|
|-----0h1-0h1--0h1--0------0---1-1-1-1--------0-0--------0h1--0h1--3-1-0-0----1-1-1-1---|
|-----2---2----2----2------0---2-2-2----0-0-0------------2----2----2-2-2-0----2-2-2-2---|
|-----2---2----2----2------2---3-3-3----2-2-2-----------2-----2----2-2-2------3-3-3-3---|
|-----0---0----0----0----------3-3-3----2-2-2----------0----------------------3-3-------|
|------------------------------1-1-1----0-0-0---------------------------------1-1-------|


JAMES:
|---------------------------------------------------------------------------|
|---------------------------------------------------------------------------|
|-----9~-7~----10h12--10h12/14~--12~---10--9~--7~--5~--4~-------------------|
|---------------------------------------------------------------------------|
|---------------------------------------------------------------------------|
|---------------------------------------------------------------------------|

Billy:
|--------------1------1----------------------------1-1----------------------|
|----1--1------2------2----------------------------1-1---0-0----------------|
|----2--2------3------3----------------------------2-2---0-0----------------|
|----2--2------0------0----------------------------3-3---2-2----------------|
|----0--0------------------------------------------3-3---0h2----------------|
|--------------------------------------------------1-1---0-0----------------|


Jame:
|------------------------------------------------0--------------------------|
|----------------------------0---------0----0--0---0---------(0)(0)(0)------|
|----4h5--4h5--/7-5--4--2~---2~--------2~---0--------4------7--7--7-7b7-7~~-|
|----------------------------0---------2~-------------0---------------------|
|--------------------------------------0------------------------------------|
|---------------------------------------------------------------------------|

Billy:
|----------------------------0~--------0~---------------|
|----------------------------0~--------0~---------------|
|----------------------------2~--------2~---------------|
|----------------------------2~--------0~---------------|
|-------------------------------------------------------|
|-------------------------------------------------------|


                And who am i              To need you When i'm down?
                           Am                 C                G
VERSE:-
|--------------------------0------0----------------------------------3--------|
|-----4--7-8~--------------1---1------1-------------1----------3------3-------|
|---0----------------------2--------2---2--------0----0-0--------------0---0--|
|--------------------------2-2---2--------------2-2----2----------0------0----|
|--------------------------0------------------3------------------2-2----------|
|--------------------------------------------------------------3--------------|

And where are you                  When i    need  you  a___round
|----------------0------0------------------------------------3------3---------|
|----------------1---1------1---------1-----------3---5------3-----3-3--------|
|----------------2--------2---2----------0--------------------------0---0-----|
|----------------2-2---2----------------2-2---------2-----------0-------------|
|----------------0--------------------3------------------------2-2------------|
|------------------------------------------------------------3----------------|

Your   Life    is    not   your   own
         F           Dm            Am

|--------1-------------1------------0-------------------|
|--------1-------------3------------1---------1---------|
|--------2-------------2------------2--------2----------|
|--------3-------------0------------2-------2-----------|
|--------3---------------------------------0------------|
|--------1----------------------------------------------|


Outro
  5.32                     5.40         5.44              5.51        5.54
|-------------------------------------------------------------------------------|
|---------------------------0------------8b--x--------------3-------------------|
|--------5--7~--7~/--9------0------------7b--5------5~----5---5-------9h7-------|
|--5--7---------------------2---------------------------------------------------|
|---------------------------2---------------------------------------------------|
|-------------------------------------------------------------------------------|

   5.56          6.02
|-----------------------------------------------------------------------|
|-----------------------------------------------------------------------|
|---7-5--9-5-----14b-12~--14b-12--14b-14b-14b-14b-12~/14/12/14-14~~~~---|
|-----------------------------------------------------------------------|
|-----------------------------------------------------------------------|
|-----------------------------------------------------------------------|


************************************

| /   slide up
| \   slide down
| h   hammer-on
| p   pull-off
| ~   vibrato
| +   harmonic
| x   Mute note
| b   Bend
| pb  Pre-bend
| br  Bend release
| pbr Pre-bend release
| brb Bend release bend

************************************
            
Hard to play? Try these video lessons and learn fast. | Correct




comments powered by Disqus
↑ Back to top | Tablatures and chords are parodies/interpretations of the original songs. You may use it for private study, scholarship, research or language learning purposes only