>
 >
Crawl

Crawl Guitar Tabs

Smashing Pumpkins - Crawl chords, tabs, tablatures, lyrics

Guitar lessons | Add/correct | Request | Top 50 tabs Artists:  A B C D E F G H I J K L M N O P Q R S T U V W X Y Z 0-9

Crawl Guitar Tabs – Smashing Pumpkins

CD, Sheet music, Poster

Do you like Crawl? Share with your friends now
Tabs
-------------------------------------------------------------------------------
-------------------------------------------------------------------------------

Tuning:DDDF#BD

This was done by ear, as well as the tuning and lyrics. This may be innacurate, but it 
seemed to fit.
The A is tuned as low as the E tuned to the D, if that makes sense.

Sounds great when accompanied by a bongo player, such as in the studio recording.



Figure 1
D |-------------------------------------|
B |-----3-----1--1----------------------|
F#|-0-0-0-0-0-0--0-0-0-1h3-1h3-1h3p1p0--|
D |-0-0-0-0-0-0--0-0-0-0---0---0--------|
D |-0-0-0-0-0-0--0-0-0-0---0---0--------|
D |-0-0-0-0-0-0--0-0-0-0---0---0--------|


Figure 2
D |-0--0-0--0-0--0--0-0--|
B |-7--7-7--7-7--7--7-7--|
F#|-0--0-0--0-0--0--0-0--|
D |-0--0-0--0-0--0--0-0--|
D |-0--0-0--0-0--0--0-0--|
D |-0--0-0--0-0--0--0-0--|

Figure 3
D |-0--0--0-0--0--0-0-----0--0--0-0--0--0-0-----0-0-0-0-0-------0--0-0--0-0--0--0-0--|
B |-10-10-1010-10-1010----8--8--8-8--8--8-8-----7-8-5-7-3h5p3/2-3--3-3--3-3--3--3-3--|
F#|-0--0--0-0--0--0-0--00-0--0--0-0--0--0-0--00-0000000-0-------0--0-0--0-0--0--0-0--|
D |-0--0--0-0--0--0-0--00-0--0--0-0--0--0-0--00-0000000-0-------0--0-0--0-0--0--0-0--|
D |-0--0--0-0--0--0-0--00-0--0--0-0--0--0-0--00-0000000-0-------0--0-0--0-0--0--0-0--|
D |-0--0--0-0--0--0-0--00-0--0--0-0--0--0-0--00-0000000-0-------0--0-0--0-0--0--0-0--|

Figure 4
D |-------------------------0--0--0--00-0--|
B |-------------------------0--0--0--00-0--|
F#|-0--0-0--0-0--0--0-0--00-0--0xx0--00-0--|
D |-0--0-0--0-0--0--0-0--00-0--0xx0--00-0--|
D |-0--0-0--0-0--0--0-0--00-2--2xx5--55-5--|
D |-0--0-0--0-0--0--0-0--00-2--2xx5--55-5--|

Figure 5
D |-0--0-0--0--0-0--0--00-0--0-0--0--0-0--0--|
B |-0--0-0--0--0-0--0--00-0--0-0--0--0-0--0--|
F#|-0--0-0--0--0-0--0--00-0--0-0--0--0-0--0--|
D |-0--0-0--0--0-0--0--00-0--0-0--0--0-0--0--|
D |-5--5-5--5--5-5--5--55-5--5-5--5--5-5--5--|
D |-5--5-5--5--5-5--5--55-5--5-5--5--5-5--5--|

Figure 6
D |-0-0-0-0------0-0-0-0-0--0--0-0--0--0--0-0-----|
B |-8-7-5-3------8-7-5-3-5--0--0-0--0--0--0-0-----|
F#|-0-0-0-0-0000-0-0-0-0-0--0--0-0--0--0--0-0-----|
D |-0-0-0-0-0000-0-0-0-0-0--0--0-0--0--0--0-0-----|
D |-0-0-0-0-0000-0-0-0-0-0--5--5-5--5--5--5-5-55--|
D |-0-0-0-0-0000-0-0-0-0-0--5--5-5--5--5--5-5-55--|


Figure 1 (3x)
Figure 2
Figure 1 (4x)
Figure 3 (2x)

Figure 4                               Figure 1 (2x)
Waiting for someone, see if I deserve.


Figure 4                               Figure 1 (2x)
Tell me I've forgotten the ones I should preserve.


Figure 5
and I crawl,


Figure 1 (2x)
I crawl.


Figure 3 (2x)


Figure 4                               Figure 1 (2x)
And there's a treason, burn inside, somehow.


Figure 4                               Figure 1 (2x)
Glad that it's over, still wish you'd call.


Figure 5
and I crawl,


Figure 1 (2x)
I crawl.


Figure 2



(Improvisation until next figure)



Figure 6
There's no reason in the reasons I care.


Figure 6
All good reasons, reasons I should share.


Figure 4
You believe that I crawl.


Figure 4
You still see me crawl.


Figure 4    Figure 5
You believe,


Figure 1 (4x)
I crawl.


(Improvisation until end of song, very fun to mess around with)
************************************

| /   slide up
| \   slide down
| h   hammer-on
| p   pull-off
| ~   vibrato
| +   harmonic
| x   Mute note
| b   Bend
| pb  Pre-bend
| br  Bend release
| pbr Pre-bend release
| brb Bend release bend

************************************





Comments


Popular Smashing Pumpkins tabs & chords
Silverfuck Bass Tabs
If There Is A God Chords
Mayonaise 4 Chords
Untitled Chords
Astral Planes Tabs
Drown Tabs
Mellon Collie And The Infinite Sadness 1 Tabs
Mother 1 Tabs
Soma Tabs
Christmas Time Ukulele


Song lyrics



↑ Back to top | Tablatures and chords are parodies/interpretations of the original songs. You may use it for private study, scholarship, research or language learning purposes only
© 2014 AZChords.com Contact us | Privacy policy | DMCA | Add/correct tabs | Request tabs | Top 50 tabs