» » »

Clones Were All Tabs (ver.1)

Artists:  A B C D E F G H I J K L M N O P Q R S T U V W X Y Z # 

Clones Were All Tabs (ver.1)

Smashing Pumpkins
Rating:
0/5 (0 votes)

Hard to play? Try these video lessons and learn fast.
                Smashing Pumpkins - Clones, we're all

INTRO

 Guitar 1
|------------------------|
|------------------------|
|------------------------| X4
|-6--6--x--x--x--x--x--3-|
|-6--6--x--x--x--x--x--3-|
|-4--4--x--x--x--x--x--1-|

 Guitar 2
|-------------------------|
|-------------19----------|
|----17-18-17----17-18-17-| X4
|-18----------------------|
|-------------------------|
|-------------------------|

VERSE
|---------------------------------------------------------------------|
|---------------------------------------------------------------------|
|-------------------------------------------------6-6-----------------|
|-6-6-x-x-x-x-x-3/6-6-x-x-x-x-x-3/6-6-x-x-x-x-x-x-6-6-x-x-x-x-x-x-3-3-|
|-6-6-x-x-x-x-x-3/6-6-x-x-x-x-x-3-6-6-x-x-x-x-x-x-4-4-x-x-x-x-x-x-3-3-|
|-4-4-x-x-x-x-x-1/4-4-x-x-x-x-x-1/4-4-x-x-x-x-x-x-4-4-x-x-x-x-x-x-1-1-|

|-------------------------------------------------------------|
|-------------------------------------------------------------|
|-------------------------------------------------------------|
|-x-x-x-x-x-x-3-3-x-x-x-x-x-3/6-6-x-x-x-x-x-3/6-6-x-x-x-x-x-x-|
|-x-x-x-x-x-x-3-3-x-x-x-x-x-3/6-6-x-x-x-x-x-3/6-6-x-x-x-x-x-x-|
|-x-x-x-x-x-x-1-1-x-x-x-x-x-1/4-4-x-x-x-x-x-1/4-4-x-x-x-x-x-x-|


CHORUS

 Guitar 1
|----------------------------------------------------------------|
|----------------------------------------------------------------|
|-6-6-6-6-8-8-8-8------------------------------------------------|
|-6-6-6-6-8-8-8-8-6--6--x--x--x--x--x--3/6--6--x--x--x--x--x--x--|
|-4-4-4-4-6-6-6-6-6--6--x--x--x--x--x--3/6--6--x--x--x--x--x--x--|
|-4-4-4-4-6-6-6-6-4--4--x--x--x--x--x--1/4--4--x--x--x--x--x--x--|

 Guitar 2
|----------------------------------------------------------------|
|-----------------------------19---------------------19----------|
|--------------------17-18-17----17-18-17---17-18-17----17-18-17-|
|-----------------18---------------------18----------------------|
|----------------------------------------------------------------|
|----------------------------------------------------------------|

INTERLUDE

 Guitar 1
|----------|    ----------|    ----------|    ---------|
|----------|    ----------|    ----------|    ---------|
|-10-10----|X6  -8-8------|X2  -10-10----|X1  -8-8-----|X7
|-10-10----|    -8-8------|    -10-10----|    -8-8-----|
|-8--8-----|    -6-6------|    -8--8-----|    -6-6-----|
|-8--8-----|    -6-6------|    -8--8-----|    -6-6-----|

 Guitar 2
|-----------------|
|-----------------|
|-----------------|X16
|---------1-------|
|---0-1-0---0-1-0-|
|-1---------------|


End
|-----------------------|
|-----------------------|
|-6-6-6-6-8-8-8-8-------|
|-6-6-6-6-8-8-8-8--3----|
|-4-4-4-4-6-6-6-6--3----|
|-4-4-4-4-6-6-6-6--1----|
            
Hard to play? Try these video lessons and learn fast. | Correct




comments powered by Disqus
↑ Back to top | Tablatures and chords are parodies/interpretations of the original songs. You may use it for private study, scholarship, research or language learning purposes only