» » »

Smashing Pumpkins, Clones Bass tabs (ver.1)

Artists:  A B C D E F G H I J K L M N O P Q R S T U V W X Y Z # 

Clones Bass tabs (ver.1)

Smashing Pumpkins Tabs
 Rating:
4/5 (4 votes)
Clones lessons Tabs too difficult? Try these video lessons and learn fast
                Standard tuning.

You'll have to listen to the song to know when to play what.

Riff 1
|---------------------|
|---------------------|
|---------------------|  
|3-3-0-3-0-3-3-0-3-3--| 

Play Fill 1 when Billy Sings "Im Two Doctor, Threes on
the Line" But until then Play Riff 1

Fill 1
|---------------------|
|---------------------|
|--3-3-3-----3--------|
|0-------0-0---0-0-0--|

Fill 2
|----------------------|
|----------------------|
|3-3-3-3-3-5-5-5-5-5---|
|----------------------|

This is played when he Says "Were all clones..."

Fill 3
|---------------------|
|---------------------|
|3-3-3-3-3------------|
|----------0-0-0-0-0--|


Riff 2
|-------------------------------------------------|
|-------------------------------------------------| -->
|5-5--5-5--5-5--5-5--5-5--5-5--3-3--3-3--5-5--3-3-|
|-------------------------------------------------|

Riff 2 Continued
|-------------------------|
|-------------------------|
|3-3--3-3--3-3--3-3--3-3--|
|-------------------------|

Riff 2  Riff 3          
|-----+-----|
|-----|-----|
|5-5--|3-3--|
|-----+-----|

This is the order in which you play Riff 2 and Riff 3:
Riff 2x6 times 
Riff 3x2 times
Riff 2x1 times
Riff 3x6 times

Last part of the song.
Riff 4
|-------------------------------|
|-------------------------------|
|3-3-3-3-3-5-5-5-5-5------------|
|--------------------0-0-0-0-0--|
            
Submit corrections

comments powered by Disqus
↑ Back to top | Smashing Pumpkins Bass for Clones. Lyrics for acoustic guitar and electric guitar. Tablatures and chords are parodies/interpretations of the original songs. You may use it for private study, scholarship, research or language learning purposes only